Oops, an error
Loading. Please wait.

Oh Love Tab

version 3
version 3

Interactive

Video

30,615 views 1 this week
7 commentsread comments
1 2 3 4 5
accurate
x 21
add to favorites
launch autoscroll
font size
0
reset
how to read this tab
guitar tuner
Autoscroll
slow
fast
+/-
esc
set tempo
stop
Help us to improve Ultimate-Guitar.com Take our survey!
×
Author
Green Day
Oh Love

Tuning: Standard

GD's brand new single tabbed down by me, and this is my first real tab so let me know 
what you guys think.
I'll add the solo later when I got the time, right now I just want to get this out to 
all of you!
Listen to the song for the exact timing and strumming pattern, it's really easy to hear.

Cheers!



INTRO/ VERSE 1


E --------------------------------------------------------------------------------|
b --------------------------------------------------------------------------------|
G --------------6----------6-6-6666666----------6----------6----------6-6-6666666-|
D --xx-66-x-x-x-6-66-x-x-x-6-6-6666666-66-x-x-x-6-66-x-x-x-6-66-x-x-x-6-6-6666666-|
A --xx-66-x-x-x-4-66-x-x-x-4-4-4444444-66-x-x-x-4-66-x-x-x-4-66-x-x-x-4-4-4444444-|
E --xx-44-x-x-x---44-x-x-x-------------44-x-x-x---44-x-x-x---44-x-x-x-------------|


E ---------------------------------------------------------------------------------------|
b ---------------------------------------------------------------------------------------|
G ----------6----------6----------6-6-6666666----------6----------6----------6-6-6666666-|
D -66-x-x-x-6-66-x-x-x-6-66-x-x-x-6-6-6666666-66-x-x-x-6-66-x-x-x-6-66-x-x-x-6-6-6666666-|
A -66-x-x-x-4-66-x-x-x-4-66-x-x-x-4-4-4444444-66-x-x-x-4-66-x-x-x-4-66-x-x-x-4-4-4444444-|
E -44-x-x-x---44-x-x-x---44-x-x-x-------------44-x-x-x---44-x-x-x---44-x-x-x-------------|


E ---------------------------------------------------------|
b ---------------------------------------------------------|
G ----------6----------6----------6-6-6---8888888888888888-|
D -66-x-x-x-6-66-x-x-x-6-66-x-x-x-6-6-6-6-8888888888888888-|
A -66-x-x-x-4-66-x-x-x-4-66-x-x-x-4-3-4-6-6666666666666666-|
E -44-x-x-x---44-x-x-x---44-x-x-x-------4------------------|


CHORUS


E ------------------------------------------------------|
b ------------------------------------------------------|
G --------8-8888--------6-6666--------8-8888-------8888-|
D -6-6666-8-8888-6-6666-6-6666-6-6666-8-8888-66666-8888-|
A -6-6666-6-6666-6-6666-4-4444-6-6666-6-6666-66666-6666-|
E -4-4444--------4-4444--------4-4444--------44444------|

E ----------------------------------------------|
b ----------------------------------------------|
G --------8-8888--------6-6666--------8-8888----|
D -6-6666-8-8888-6-6666-6-6666-6-6666-8-8888-66-|
A -6-6666-6-6666-6-6666-4-4444-6-6666-6-6666-66-|
E -4-4444--------4-4444--------4-4444--------44-|


VERSE 2


E -------------------------------------------------------------------|
b -------------------------------------------------------------------|
G -6-------6-6-6666666-------6-------------6-------------6-6-6666666-|
D -6-66----6-6-6666666-66----6-66-xx-x-xx--6-66-xx-x-xx--6-6-6666666-|
A -4-66----4-4-4444444-66----4-66-xx-x-xx--4-66-xx-x-xx--4-4-4444444-|
E ---44----------------44------44-xx-x-xx----44-xx-x-xx--------------|

E -----------------------------------------------------|
b -----------------------------------------------------|
G -------------6-------------6-------------6-6-6666666-|
D -66-xx-x-xx--6-66-xx-x-xx--6-66-xx-x-xx--6-6-6666666-|
A -66-xx-x-xx--4-66-xx-x-xx--4-66-xx-x-xx--4-4-4444444-|
E -44-xx-x-xx----44-xx-x-xx----44-xx-x-xx--------------|

E --------------------------------------------------------------------------------------------|
b --------------------------------------------------------------------------------------------|
G -------------6-------------6-------------6-6-6666666-------------6-------------6------------|
D -66-xx-x-xx--6-66-xx-x-xx--6-66-xx-x-xx--6-6-6666666-66-xx-x-xx--6-66-xx-x-xx--6-66-xx-x-xx-|
A -66-xx-x-xx--4-66-xx-x-xx--4-66-xx-x-xx--4-4-4444444-66-xx-x-xx--4-66-xx-x-xx--4-66-xx-x-xx-|
E -44-xx-x-xx----44-xx-x-xx----44-xx-x-xx--------------44-xx-x-xx----44-xx-x-xx----44-xx-x-xx-|

E --------------------------|
b --------------------------|
G -6-6-6---8888888888888888-|
D -6-6-6-6-8888888888888888-|
A -4-3-4-6-6666666666666666-|
E -------4------------------|


CHORUS


E ------------------------------------------------------|
b ------------------------------------------------------|
G --------8-8888--------6-6666--------8-8888-------8888-|
D -6-6666-8-8888-6-6666-6-6666-6-6666-8-8888-66666-8888-|
A -6-6666-6-6666-6-6666-4-4444-6-6666-6-6666-66666-6666-|
E -4-4444--------4-4444--------4-4444--------44444------|

E -----------------------------------------------------|
b -----------------------------------------------------|
G --------8-8888--------6-6666--------8-8888-----------|
D -6-6666-8-8888-6-6666-6-6666-6-6666-8-8888-666666-64-|
A -6-6666-6-6666-6-6666-4-4444-6-6666-6-6666-666666-64-|
E -4-4444--------4-4444--------4-4444--------444444-42-|


BRIDGE


E -----------------------------------------------------------------------------------|
b -----------------------------------------------------------------------------------|
G -66--66------------66666666--------------66-66-----8-101010--6-6-6---8888888888888-|
D -66--66--66--66-64-66666666-66666666-64--66-66--66-8-101010--6-6-6-6-8888888888888-|
A -44--44--66--66-64-44444444-66666666-64--44-44--66-6-88888---4-3-4-6-6666666666666-|
E ---------44--44-42----------44444444-42---------44-----------------4---------------|


SOLO (Just for the rhythm guitar, pretty much the same as the chorus)


E ------------------------------------------------------|
b ------------------------------------------------------|
G --------8-8888--------6-6666--------8-8888-------8888-|
D -6-6666-8-8888-6-6666-6-6666-6-6666-8-8888-66666-8888-|
A -6-6666-6-6666-6-6666-4-4444-6-6666-6-6666-66666-6666-|
E -4-4444--------4-4444--------4-4444--------44444------|

E ------------------------------------------------------|
b ------------------------------------------------------|
G --------8-8888--------6-6666-6-6-6---8888888888888888-|
D -6-6666-8-8888-6-6666-6-6666-6-6-6-6-8888888888888888-|
A -6-6666-6-6666-6-6666-4-4444-4-3-4-6-6666666666666666-|
E -4-4444--------4-4444--------------4------------------|


FINAL VERSE


E ----------------------------------------------------------------------------|
b ----------------------------------------------------------------------------|
G ----------6----------6-6-6666666----------6----------6----------6-6-6666666-|
D -66-x-x-x-6-66-x-x-x-6-6-6666666-66-x-x-x-6-66-x-x-x-6-66-x-x-x-6-6-6666666-|
A -66-x-x-x-4-66-x-x-x-4-4-4444444-66-x-x-x-4-66-x-x-x-4-66-x-x-x-4-4-4444444-|
E -44-x-x-x---44-x-x-x-------------44-x-x-x---44-x-x-x---44-x-x-x-------------|

E ---------------------------------------------------------|
b ---------------------------------------------------------|
G ----------6----------6----------6-6-6---8888888888888888-|
D -66-x-x-x-6-66-x-x-x-6-66-x-x-x-6-6-6-6-8888888888888888-|
A -66-x-x-x-4-66-x-x-x-4-66-x-x-x-4-3-4-6-6666666666666666-|
E -44-x-x-x---44-x-x-x---44-x-x-x-------4------------------|


FINAL CHORUS


E ------------------------------------------------------|
b ------------------------------------------------------|
G --------8-8888--------6-6666--------8-8888-------8888-|
D -6-6666-8-8888-6-6666-6-6666-6-6666-8-8888-66666-8888-|    x 4
A -6-6666-6-6666-6-6666-4-4444-6-6666-6-6666-66666-6666-|
E -4-4444--------4-4444--------4-4444--------44444------|

E --------------------------------------------------|
b --------------------------------------------------|
G --------8-8888-------8888--------8-8888-----6-----|
D -6-6666-8-8888-66666-8888-6-6666-8-8888-666-6-6---|
A -6-6666-6-6666-66666-6666-6-6666-6-6666-666-4-6---|
E -4-4444--------44444------4-4444--------444---4---|
Suggest correction
What's this?
You can suggest a correction to this tab. Community and Mods will review your correction and vote to approve or reject it.
comments
print report bad tab
7 comments total. Showing first comments.
+1 reply
germix27 19 wrote on July 19 2012, 12:53 pm

Excellent! Love the Song and the tab :D

+1 reply
Destroyaize 110 wrote on July 21 2012, 12:18 pm

Thanks, that's great to hear! :)

+1 reply
RachMeAtSix 23 wrote on July 22 2012, 09:41 am

Perfect tab!
Can't find any mistakes.
Add the solo soon please!xD

guest
You may want to rate the tab now too:
select rating
Please do not post tabs as comments. Select "correction" instead!