Oops, an error
Loading. Please wait.
We have an official Oh Love tab made by UG professional guitarists. Check out the tab »
×
24,105 views 3 this week
3 commentsread comments
1 2 3 4 5
x 9
add to favorites
launch autoscroll
font size
0
reset
how to read this tab
guitar tuner
backing track
0:00
0:00
Autoscroll
slow
fast
+/-
esc
set tempo
stop
Author
Difficulty
intermediate
Oh Love

updated to whole song not just solo.
tab previously rated for solo only.
other tabs have no strumming patterns or miscount strums so i did them

strumming:v/^ (i had actual arrows but print prev. shows them as numbers :(
let ring ~


Intro/V1 v^ v v   v  v  v^  v v   v  v  v  v v v^vv v^ v v   v  v
e|------|----------------------------------------------------------|
B|------|--start---------------------------------------------------|
G|*-(x6)|XX-------X--X--X6~-------X--X--X--6~6~6666-66-------X--X-*|
D|--(x6)|XX-6-6---X--X--X6~-6-6---X--X--X--6~6~6666-66-6-6---X--X--| x4
A|*-(x4)|XX-6-6---X--X--X4~-6-6---X--X--X--4~4~4444-44-6-6---X--X-*|
E|------|---4-4-------------4-4------------------------4-4---------|
no strums at end of fourth time

 PreChorus
0:52  v v v v  vvvvvv etc.
e|-------------------------------|
B|-------------------------------|
G|-------------------------------|
D|----6~6~6~---8888888888888888--|.. to chorus
A|----4~3~4~6~-6666666666666666--|
E-----------4~-------------------|


Chorus
    v v  v^v v  v^v vv v^^vvv v v  v^v v v v^v v v v^ v^v^v^v^v^      
e|---------|------|----|-----|-------|-------|--------|---------|
B|---------8~8~-88-----------|-------8~8~8~88---------888888888-|
G|---------8~8~-88-----666666|-------8~8~8~88---------888888888-|
D|--6~6~-668~8~-886~66-666666|6~6~-668~8~8~886~6~6~66-888888888-|
A|--6~6~-666~6~-666~66-444444|6~6~-666~6~6~666~6~6~66-666666666-|
E|--4~4~-44-------4~44-------|4~4~-44--------4~4~4~44-----------|
    v v  v^v v  v^v vv v^^vvv v v  v^v v v v^ v v       
e|---------|------|----|------|------|-------|----|
B|---------8~8~-88-----------|-------8~8~8~88|----|
G|---------8~8~-88-----666666|-------8~8~8~88|----|
D|--6~6~-668~8~-886~66-666666|6~6~-668~8~8~88|6-6-|
A|--6~6~-666~6~-666~66-444444|6~6~-666~6~6~66|6-6-|
E|--4~4~-44-------4~44-------|4~4~-44--------|4-4-|


Verse 2 (after those two last g#'s)         
1:22                                         GUITAR 2 COMES IN WITH
   v ^ ^  v v v^vv v^ v v   v v^ ^v v         v^
e|------|----------------|-----------------|| 
B|------|----------------|-----------------||
G|-6~---|-6~6~6666-66----|--X-XX-XX-X------||-13---------|
D|-6~6-6|-6~6~6666-66-6-6|--X-XX-XX-X------||--X---------|
A|-4~6-6|-4~4~4444-44-6-6|--X-XX-XX-X------||-11---------|
E|---4-4|-------------4-4|-----------------||


                                  REPEAT PRECHORUS
                                        &
                                      CHORUS


Bridge 2:40                                           2:52
   v v  v v  v v  v v v    vv^vv^vv^vv^vvvv^vvv       v v  v v  v v v   v
e|-----------------------|-------------------------||----------------------|
B|-----------------------|-------------------------||----------------------|
G|-6-6--6-6--------------|-666666666666------------||-6-6--6-6---------(10-|
D|-6-6--6-6--6-6--6-6-6\4|-66666666666666666666\4--||-6-6--6-6--6-6-6/8-10X4)
A|-4-4--4-4--6-6--6-6-6\4|-44444444444466666666\4--||-4-4--4-4--6-6-6/8(-8-|
E|-----------4-4--4-4-4\2|-------------44444444\2--||-----------4-4-4/6----|

                                 PRECHORUS....

SOLO!!!    ALL DOWN v       
e|-------------------------------------------------|---------FAST-----------|
B|-------------------------------------------------|-----9--9-8-------------|
G|-------------------------------------------------|-8-8-8------10-8--------|
D|---6~--6-5-6/8~--8-6-8/10~--10-8-10/11~--11-10-11|------------------------|
A|-------------------------------------------------|------------------------|
E|-------------------------------------------------|------------------------|

e|----FAST------------------------------------------------------------------|
B|----------------------9p8h9p8h9p8h9~-WOO----------------------------------|
G|--7p6p4--4b----4h6--------------------------------------------------------|
D|-------6------6-----------------------------------------------------------|
A|--------------------------------------------------------------------------|
E|--------------------------------------------------------------------------|

e|-------------------------------------------------------------------------|
B|-------------------------------------------------------------------------|
G|--13~--13-12-13/15~--15-13-15/17~--17-15-17/18~--18-17---18~17~18~13~----|
D|-------------------------------------------------------------------------|
A|-------------------------------------------------------------------------|
E|-------------------------------------------------------------------------|

e|-----------------------16-18~~--17-18--20-18-22~bend big--\\-------------|
B|--16~~--16-18-20~~--20---------------------------------------------------|
G|-------------------------------------------------------------------------|
D|-----------------------------------------------------------------6-6-----|
A|-----------------------------------------------------------------6-6-----|
E|-----------------------------------------------------------------4-4-----|


                               INTRO X2

                              PRECHORUS 

                               CHORUS X2

Outro/Coda
4:50
  v v  v^v v v v^v v v v^ v^v^v^v^v^  v v  v^v v v v^v v v^  v  
e|------|-------|--------|----------|--------|-------|------------|
B|-------8~8~8~88---------888888888-|--------8~8~8~88-------------|
G|-------8~8~8~88---------888888888-|--------8~8~8~88-----6~------|
D|6~6~-668~8~8~886~6~6~66-888888888-|-6~6~-668~8~8~886-6-66~-6\4--|
A|6~6~-666~6~6~666~6~6~66-666666666-|-6~6~-668~8~8~886-6-64~-6\4--|
E|4~4~-44--------4~4~4~44-----------|-4~4~-44--------4-4-4---4\2--|


just update for whole song. SOLO IS STILL SAME.
please rate and comment as it took all that time to do this and it takes 5 seconds to do that

↓↑
Suggest correction
comments
print report bad tab
3 comments total.
0 reply
germix27 10 Jul 19, 2012 07:20 PM

Excellent! Love the solo!

0 reply
deathfromala 5,448 Jul 19, 2012 10:42 PM

thanks alot :P

0 reply
deathfromala 5,448 Jul 21, 2012 06:03 PM

UPDATE COMING VERY SOON!
ACTUAL WHOLE SONG WITH STRUMMING DIRECTIONS/PATTERNS AND ACTUAL WAY TO PLAY SONG AS I TOOK VOCALS OFF AND LISTENED TO JUST GUITAR BIT

guest
You may want to rate the tab now too:
select rating
Wanna post a correction for this tab? Suggest correction