Oops, an error
Loading. Please wait.

On The Wagon Tab

version 1
version 1

Whole song

Interactive

6,187 views 9 this week
2 commentsread comments
1 2 3 4 5
excellent!
x 5
add to favorites
launch autoscroll
font size
0
reset
how to read this tab
guitar tuner
Tab Pro tools
  • play this tab
  • loop segment
  • change instrument
  • show fretboard
  • metronome
×
Best way to learn
"On The Wagon"
Autoscroll
slow
fast
+/-
esc
set tempo
stop
Difficulty
intermediate
Guitar 1 Intro at 0:00 (all PM)

F#5 B5 A5
e-------------------------------------------|
B-------------------------------------------|
G-----------------------44-4-44-4-77-7-77-7-|
D---44-4-44-4-44-4-44-4-44-4-44-4-77-7-77-7-|
A---44-4-44-4-44-4-44-4-22-2-22-2-55-5-55-5-|
E---22-2-22-2-22-2-22-2---------------------|


Intro (cont.)

F#5 C#5 F#5 C#5
e----------------------------------------------|
B----------------------------------------------|
G-------------66-6-66-6-----------66-66-66-66--|
D---44-4-44-4-66-6-66-6-44-4-44-4-66-66-66-66--|
A---44-4-44-4-44-4-44-4-44-4-44-4-44-44-44-44--|
E---22-2-22-2-----------22-2-22-2--------------|


Guitar 2 Intro

F# B Dm F# C# F# C#
e---2~~~-2~~~-----------2~~~--------2~~~-----------|
B---2~~~-2~~~-4~~~-6~~~-2~~~2-6~~~6-2~~2-----(6)~~-|
G---3~~~-3~~~-4~~~-7~~~-3~~3--6~~6--3~~~3-----(6)~-|
D---4~~~-4~~~-4~~~-7~~~-4~4---6~6---4~4-----(6)~~~-|
A---4~~~-4~~~-2~~~-5~~~-4~~~--4~~~--4~~~-----------|
E---2~~~-2~~~-----------2~~~--------2~~~-----------|

Guitar 1 Verse at 0:17 (all PM)

F#5 B5 D5
e-------------------------------------------|
B-------------------------------------------|
G-----------------------44-4-44-4-77-7-77-7-|
D---44-4-44-4-44-4-44-4-44-4-44-4-77-7-77-7-|
A---44-4-44-4-44-4-44-4-22-2-22-2-55-5-55-5-|
E---22-2-22-2-22-2-22-2---------------------|

Guitar 1 Verse (cont.)

F#5 C#5
e--------------------------------------------|
B--------------------------------------------|
G-----------------------66-6-66-6-66-6-66-6--|
D---44-4-44-4-44-4-44-4-66-6-66-6-66-6-66-6--|
A---44-4-44-4-44-4-44-4-44-4-44-4-44-4-44-4--|
E---22-2-22-2-22-2-22-2----------------------|

Guitar 1 Verse (cont.)at 0:33

F#5 B5 D5
e-------------------------------------------|
B-------------------------------------------|
G-----------------------44-4-44-4-77-7-77-7-|
D---44-4-44-4-44-4-44-4-44-4-44-4-77-7-77-7-|
A---44-4-44-4-44-4-44-4-22-2-22-2-55-5-55-5-|
E---22-2-22-2-22-2-22-2---------------------|

Guitar 1 Verse (cont.)

F#5 C#5 F#5
e-----------------------------------------------|
B-----------------------------------------------|
G-------------66-6-66-6-------------------------|
D---44-4-44-4-66-6-66-6-44-4-44-4-44-4-44-4-----|
A---44-4-44-4-44-4-44-4-44-4-44-4-44-4-44-4-----|
E---22-2-22-2-----------22-2-22-2-22-2-22-2-----|

Gutitar 2 Verse at 0:17

Since I don't feel like tabbing out the verse for
guitar 2, just strum the matching chords over guitar
1 and do the picking patterns when they come up.

Guitar 1 Chorus at 0:50

B5 F5 F#5 F5 F#5
e-------------------------------------|
B-------------------------------------|
G---44-4-44-44-4-44-4-----------------|
D---44-4-44-44-4-44-4-3/4-444-3/4-444-|
A---22-2-22-22-2-22-2-3/4-444-3/4-444-|
E---------------------1/2-222-1/2-222-|
PM -----------------|

Guitar 1 Chorus (cont.)

B5 C#5
e-------------------------------------|
B-------------------------------------|
G---44-4-44-44-4-44-4-44-4-6----------|
D---44-4-44-44-4-44-4-44-4-6(stop)----|
A---22-2-22-22-2-22-2-22-2-4----------|
E-------------------------------------|
PM -----------------------|

Guitar 1 Chorus (cont.) at 1:06 (guitar 1 joins in again
F#5 B5 D5 with verse pt.)
e-------------------------------------------|
B-------------------------------------------|
G-----------------------44-4-44-4-77-7-77-7-|
D---44-4-44-4-44-4-44-4-44-4-44-4-77-7-77-7-|
A---44-4-44-4-44-4-44-4-22-2-22-2-55-5-55-5-|
E---22-2-22-2-22-2-22-2---------------------|
PM -----------------------------------------|

Guitar 1 Chorus (cont.)

F#5 C#5
e-------------------------------------------|
B-------------------------------------------|
G-------------------------------------------|
D---44-4-44-4-44-4-44-4-6-------------------|
A---44-4-44-4-44-4-44-4-6-(stop, then go----|
E---22-2-22-2-22-2-22-2-4- back to verse)---|
PM -------------------|

Guitar 1 Bridge to Solo (All PM) at 1:18

F#5 C#5
e----------------------------|
B----------------------------|
G----------------66-6-66-6---|
D---44-4-44-4-44-66-6-66-6---|
A---44-4-44-4-44-44-4-44-4---|
E---22-2-22-2-22-------------|

Guitar 3 Solo over Verse Chords

F# B D F#
e------------------------------------2---------2--|
B-----2-----------------2-----4---7-2----------2--|
G----------------------------------------------3--|
D---4-----4p2h4----4-2/4-----4---7----4p2----4----|
A--------------h4-4--------/2--/5--------h4-4-----|
E----------------------------------2--------------|

Guitar 3 Solo cont. at 1:34
F# C# F#
e----------------------------------------------|
B------------6--------------2---------------2--|
G------------6---------------------------------|
D---4p2----4-6------------4---4p2h4----4-2/4---|
A------h4-4-------4-4-4------------h4-4--------|
E--------------4/7-6-4-4-----------------------|

Guitar 3 Solo cont. at 1:42

B D F# D
e----------------2--------2---4---/6--|
B--------4----7-2---------2--4---4----|
G-------------------------3-----------|
D------4----7----4p2----4---2---2-----|
A----/2---/5--------h4-4--------------|
E--------------2----------------------|

2nd Chorus at 1:54

Repeat End of Chorus at 2:24

End of Song 1st and 2nd Guitars

F#7
e---2~~~~---|
B---2~~~~---|
G---3~~~~---|
D---2~~~~---|
A---4~~~~---|
E---2~~~~---|
comments
print report bad tab
2 comments total. show 1 bad comment
0 reply
DiscomfortSitty wrote on October 2 2011, 10:48 pm

^spam>:-( good tab though 5 stars man:-)

I want to post or [tab]
guest
You may want to rate the tab now too:
select rating
Please do not post tabs as comments. Select "correction" instead!