Oops, an error
Loading. Please wait.

Ordinary World Tab

version 1
version 1

Whole song

  • Contains fingerpicking details and sounds a lot like the song.

Interactive

Video

9,733 views 288 this week
3 commentsread comments
1 2 3 4 5
x 30
add to favorites
launch autoscroll
font size
0
reset
how to read this tab
guitar tuner
Autoscroll
slow
fast
+/-
esc
set tempo
stop
Help us to improve Ultimate-Guitar.com Take our survey!
×
Author
Difficulty
Capo
novice
7th fret
About this tab version
Contains fingerpicking details and sounds a lot like the song.
[Intro/Verse]
      C      C/B      Am     C/G           F          C       G
e|---------------------------------------------------------------------------|
B|---1---1---1---1---1---1---1---1---1---1---1---1---1---1---0---0-----------|
G|---0---0---0---0---2---2---0---0---2---2---2---2---0---0---0---0-----------|
D|---2---2---2---2---2---2---2---2---3---3---3---3---2---2---0---0-----------|
A|-3---3---2---2---0---0---------------------------3---3---------------------|
E|-------------------------3---3---1---1---1---1-----------3---3-------------|
Play once for intro then play the same thing in the verses

[Chorus]
        Am      G         F               Am       F
e|-------------------------------------------------1-------------------------|
B|---1---1---1---0---1---1---1---1---1---1---1---1-1-------------------------|
G|---2---2---2---0---2---2---2---2---2---2---2---2-2-------------------------|
D|---2---2---2---0---3---3---3---3---2---2---2---2-3-------------------------|
A|-0---0---0-----------------------0---0---0---0---3-------------------------|
E|-------------3---1---1---1---1-------------------1-------------------------|
Play during the chorus, then strum the F, count one bar and play the intro/verse again

[Outro]
      C      C/B      Am     C/G           F          C       G        C(strum)
e|---------------------------------------------------------------------------|
B|---1---1---1---1---1---1---1---1---1---1---1---1---1---1---0---0-----1-----|
G|---0---0---0---0---2---2---0---0---2---2---2---2---0---0---0---0-----0-----|
D|---2---2---2---2---2---2---2---2---3---3---3---3---2---2---0---0-----2-----|
A|-3---3---2---2---0---0---------------------------3---3---------------3-----|
E|-------------------------3---3---1---1---1---1-----------3---3-------------|
Suggest correction
comments
print report bad tab
3 comments total.
0 reply
matchoo5323 52 Oct 02, 2016 10:17 AM

Awesome, very accurate. I can see this becoming very popular once the album is fully released.

0 reply
jonathanvlietvan 33 Nov 01, 2016 02:15 PM

Great tab, mate! If only I had a capo so I could play it in the right tone...

0 reply
DoomProGamer 20 Nov 15, 2016 06:09 AM

This tab is amazing, would be awesome if you could add lyrics tho

guest
You may want to rate the tab now too:
select rating
Wanna post a correction for this tab? Suggest correction