Oops, an error
Loading. Please wait.

Outlaws Bass Tab

version 1
version 1

Whole song

  • All my tabs are write of this way and i never have a problem.
709 views 45 this week
no commentswrite comment
1 2 3 4 5
2 more votes to show rating
add to favorites
launch autoscroll
font size
0
reset
guitar tuner
Autoscroll
slow
fast
+/-
esc
set tempo
stop
Help us to improve Ultimate-Guitar.com Take our survey!
×
Author
Difficulty
[Intro]

G|---------------------------------------------------------------------------|
D|---------------------------------------------------------------------------|
A|---------8-8-8-8-8-8-8-8-8-8-8-8-8-8-8-8-5-5-5-5-5-5-5-5-5-5-5-5-5-5-5-5---|
E|-6-6-6-6-----------------------------------------------------------------6-|

G|---------------------------------------------------------------------------|
D|---------------------------------------------------------------------------|
A|---------------------------------------------------------------8-8-8-8-8-8-|
E|-6-6-6-6-6-6-6-6-6-6-6-6-6-6-6-6-6-6-6-6-6-6-6-6-6-6-6-6-6-6-6-------------|

G|---------------------------------------------------------------------------|
D|---------------------------------------------------------------------------|
A|-8-8-8-8-8-8-8-8-8-8-5-5-5-5-5-5-5-5-5-5-5-5-5-5-5-5-----------------------|
E|-----------------------------------------------------6-6-6-6-6-6-6-6-6-6-6-|

G|---------------------------------------------------------------------------|
D|---------------------------------------------------------------------------|
A|-----------8-8-8-8-8-8-8-8-------------------------------------------------|
E|-6-6-6-6-6-----------------------------------------------------------------|

[First Verse]

G|---------------------------------------------------------------------------|
D|---------------------------------------------------------------------------|
A|-8-8-8-8-8-8-8-8-8-8-8-8-8-8-8-8-5-5-5-5-5-5-5-5-5-5-5-5-5-5-5-5-----------|
E|-----------------------------------------------------------------6-6-6-6-6-|

G|---------------------------------------------------------------------------|
D|---------------------------------------------------------------------------|
A|-------------------------------------------------------8-8-8-8-8-8-8-8-8-8-|
E|-6-6-6-6-6-6-6-6-6-6-6-6-6-6-6-6-6-6-6-6-6-6-6-6-6-6-6---------------------|

G|---------------------------------------------------------------------------|
D|---------------------------------------------------------------------------|
A|-8-8-8-8-8-8-5-5-5-5-5-5-5-5-5-5-5-5-5-5-5-5-------------------------------|
E|---------------------------------------------6-6-6-6-6-6-6-6-6-6-6-6-6-6-6-|

G|---------------------------------------------------------------------------|
D|---------------------------------------------------------------------------|
A|---------------------------------------------------------------------------|
E|-6-6-6-6-6-6-6-6-6---------------------------------------------------------|

[Intro Again]

G|---------------------------------------------------------------------------|
D|---------------------------------------------------------------------------|
A|---------8-8-8-8-8-8-8-8-8-8-8-8-8-8-8-8-5-5-5-5-5-5-5-5-5-5-5-5-5-5-5-5---|
E|-6-6-6-6-----------------------------------------------------------------6-|

G|---------------------------------------------------------------------------|
D|---------------------------------------------------------------------------|
A|---------------------------------------------------------------8-8-8-8-8-8-|
E|-6-6-6-6-6-6-6-6-6-6-6-6-6-6-6-6-6-6-6-6-6-6-6-6-6-6-6-6-6-6-6-------------|

G|---------------------------------------------------------------------------|
D|---------------------------------------------------------------------------|
A|-8-8-8-8-8-8-8-8-8-8-5-5-5-5-5-5-5-5-5-5-5-5-5-5-5-5-----------------------|
E|-----------------------------------------------------6-6-6-6-6-6-6-6-6-6-6-|

G|---------------------------------------------------------------------------|
D|---------------------------------------------------------------------------|
A|-----------8-8-8-8-8-8-8-8-------------------------------------------------|
E|-6-6-6-6-6-----------------------------------------------------------------|

[Second Verse]

G|---------------------------------------------------------------------------|
D|---------------------------------------------------------------------------|
A|-8-8-8-8-8-8-8-8-8-8-8-8-8-8-8-8-5-5-5-5-5-5-5-5-5-5-5-5-5-5-5-5-----------|
E|-----------------------------------------------------------------6-6-6-6-6-|

G|---------------------------------------------------------------------------|
D|---------------------------------------------------------------------------|
A|-------------------------------------------------------8-8-8-8-8-8-8-8-8-8-|
E|-6-6-6-6-6-6-6-6-6-6-6-6-6-6-6-6-6-6-6-6-6-6-6-6-6-6-6---------------------|

G|---------------------------------------------------------------------------|
D|---------------------------------------------------------------------------|
A|-8-8-8-8-8-8-5-5-5-5-5-5-5-5-5-5-5-5-5-5-5-5-------------------------------|
E|---------------------------------------------6-6-6-6-6-6-6-6-6-6-6-6-6-6-6-|

G|---------------------------------------------------------------------------|
D|---------------------------------------------------------------------------|
A|---------------------------------------------------------------------------|
E|-6-6-6-6-6-6-6-6-6-6-6-6-6-6-6-6-6-----------------------------------------|

[Part Before Solo]

G|---------------------------------------------------------------------------|
D|---------------------------------------------------------------------------|
A|---------------------5-5-5-5--5-5-5-5--------------------------------------|
E|-1-1-1-1--1-1-1-1---------------------6-6-6-6--6-6-6-6----6-6-6-6--6-6-6-6-|

[Solo]

G|---------------------------------------------------------------------------|
D|---------------------------------------------------------------------------|
A|-8-8-8-8-8-8-8-8-8-8-8-8-8-8-8-8-5-5-5-5-5-5-5-5-5-5-5-5-5-5-5-5-----------|
E|-----------------------------------------------------------------6-6-6-6-6-|

G|---------------------------------------------------------------------------|
D|---------------------------------------------------------------------------|
A|---------------------------------------------------------------------------|
E|-6-6-6-6-6-6-6-6-6-6-6-6-6-6-6-6-6-6-6-6-6-6-6-6-6-6-6---------------------|

[Outro]

G|---------------------------------------------------------------------------|
D|---------------------------------------------------------------------------|
A|-8-8-8-8-8-8-8-8-8-8-8-8-8-8-8-8-5-5-5-5-5-5-5-5-5-5-5-5-5-5-5-5-----------|
E|-----------------------------------------------------------------6-6-6-6-6-|

G|---------------------------------------------------------------------------|
D|---------------------------------------------------------------------------|
A|-------------------------------------------------------8-8-8-8-8-8-8-8-8-8-|
E|-6-6-6-6-6-6-6-6-6-6-6-6-6-6-6-6-6-6-6-6-6-6-6-6-6-6-6---------------------|

G|---------------------------------------------------------------------------|
D|---------------------------------------------------------------------------|
A|-8-8-8-8-8-8-5-5-5-5-5-5-5-5-5-5-5-5-5-5-5-5-------------------------------|
E|---------------------------------------------6-6-6-6-6-6-6-6-6-6-6-6-6-6-6-|

G|---------------------------------------------------------------------------|
D|---------------------------------------------------------------------------|
A|---------------------------------------------------------------------------|
E|-6-6-6-6-6-6-6-6-6-6-6-6-6-6-6-6-6-----------------------------------------|
Suggest correction
Give kudos to tab author, rate the tab!
1 2 3 4 5
comments
print report bad tab
guest
You may want to rate the tab now too:
select rating
Wanna post a correction for this tab? Suggest correction