Oops, an error
Loading. Please wait.

Outlaws Tab

version 1
version 1

Whole song

3,307 views 180 this week
no commentswrite comment
1 2 3 4 5
x 7
add to favorites
launch autoscroll
font size
0
reset
how to read this tab
guitar tuner
Autoscroll
slow
fast
+/-
esc
set tempo
stop
Help us to improve Ultimate-Guitar.com Take our survey!
×
Author
Song: Outlaws
Artist: Green Day
Album: Revolution Radio (2016)
Tuning: Standard 

[Intro]
e|--------------------------|
B|--------------------------|
G|----3--3--3--3------------|
D|----3--3--3--3------------|
A|----1--1--1--1-/-4-\-1----|
E|--------------------------|

[Verse]
No guitar but if you like you can follow this:

Life...after youth...
e|------------------------------------------------------|
B|------------------------------------------------------|
G|-----------7--------3-----------------7--------3------|
D|--3--------7-x16----3-x32----3--------7-x16----3-x24--|
A|--3-x16----5--------1--------3-x16----5--------1------|
E|--1--------------------------1------------------------|
    *PM      *PM      *PM      *PM      *PM      *PM

[Chorus]

Outlaws... when we were forever young...

Guitar 1:
e|------------------------------------------------------|
B|------------------------------------------------------|
G|-----------7--------3-----------------7--------3------| 
D|--3--------7-x16----3-x32----3--------7-x16----3-x16--|
A|--3-x16----5--------1--------3-x16----5--------1------|
E|--1--------------------------1------------------------|

Guitar 2:
e|--------------------------------------------------------|
B|--------------------------------------------------------|
G|--10--------7--------3--------10--------7--------3------| 
D|--10-x16----7-x16----3-x32----10-x16----7-x16----3-x16--|
A|---8--------5--------1---------8--------5--------1------|
E|--------------------------------------------------------|

[Verse]
No guitar again, but you can play this:

Scars... broken hearts...
e|------------------------------------------------------|
B|------------------------------------------------------|
G|-----------7--------3-----------------7--------3------|
D|--3--------7-x16----3-x32----3--------7-x16----3-x24--|
A|--3-x16----5--------1--------3-x16----5--------1------|
E|--1--------------------------1------------------------|
    *PM      *PM      *PM      *PM      *PM      *PM

[Chorus]

Outlaws... when we were forever young...

Guitar 1:
e|------------------------------------------------------|
B|------------------------------------------------------|
G|-----------7--------3-----------------7--------3------| 
D|--3--------7-x16----3-x32----3--------7-x16----3-x32--|
A|--3-x16----5--------1--------3-x16----5--------1------|
E|--1--------------------------1------------------------|

Guitar 2:
e|--------------------------------------------------------|
B|--------------------------------------------------------|
G|--10--------7--------3--------10--------7--------3------| 
D|--10-x16----7-x16----3-x32----10-x16----7-x16----3-x32--|
A|---8--------5--------1---------8--------5--------1------|
E|--------------------------------------------------------|

[Breakdown]
e|--------------------------------------------------|
B|--------------------------------------------------|
G|------------------10--10--10--12--14--14--14--14--| x2
D|--3--3--3--3--3----x---x---x---x---x---x---x---x--|
A|--3--3--3--3--3----8---8---8--10--12--12--12--12--|
E|--1--1--1--1--1---------------------------------- |

e|---------------------------------------------|
B|---------------------------------------------|
G|--7--7--7--7--7---10--10--10--9--5--5--5--5--|
D|--7--7--7--7--7----x---x---x--x--x--x--x--x--| x2
A|--5--5--5--5--5----8---8---8--7--3--3--3--3--|
E|---------------------------------------------|

e|--------------------------------------------------|
B|--------------------------------------------------|
G|--3--3--3--3--3---10--10--10--12--14--14--14--14--| x2
D|--3--3--3--3--3----x---x---x---x---x---x---x---x--|
A|--1--1--1--1--1----8---8---8--10--12--12--12--12--|
E|--------------------------------------------------|


e|--------------------------------------------------|
B|--2--2--2--2--2-----------------------------------|
G|--3--3--3--3--3---15--15--15--17--18--18--18--18--|
D|--3--3--3--3--3----x---x---x---x---x---x---x---x--|
A|--1--1--1--1--1---13--13--13--15--16--16--16--16--|
E|--------------------------------------------------|

Guitar 1:
e|--------------------------------------------|
B|--2--2--2--2--x--2--2--2--2--x--2--2--2--2--|
G|--3--3--3--3--x--3--3--3--3--x--3--3--3--3--|
D|--3--3--3--3--x--3--3--3--3--x--3--3--3--3--|
A|--1--1--1--1--x--1--1--1--1--x--1--1--1--1--|
E|--------------------------------------------|

Guitar 2:
e|------------------------------------------------------------|
B|------------------------------------------------------------|
G|--18--18--18--18---x---18--18--18--18---x---18--18--18--18--|
D|---x---x---x---x---x----x---x---x---x---x----x---x---x---x--|
A|--16--16--16--16---x---16--16--16--16---x---16--16--16--16--|
E|------------------------------------------------------------|

[Solo]
Guitar 1:
e|-------------------------------------------------------------------------------------|
B|--15----13--13----10--13----17----18--17--15--10----13--13--11--6----13--13--11--14--|
G|---x-----x---x-----x---x-----x-----x---x---x---x-----x---x---x--x-----x---x---x---x--|
D|--12----10--10-----7--10----14----15--14--12---7----10--10---8--3----10--10---8---3--|
A|-------------------------------------------------------------------------------------|
E|-------------------------------------------------------------------------------------|

Guitar 2:
e|---------------------------|
B|---------------------------|
G|-----------7--------3------|
D|--3--------7-x16----3-x32--|
A|--3-x16----5--------1------|
E|--1------------------------|

[Post-Solo]
I've got no supervision...
e|-----------------------------------------------|
B|-----------------------------------------2-----|
G|--10------10-\-9-\-5------7-\-5-\-3------3-----|
D|--10-x12---x-\-x-\-5-x12--x-\-x-\-3-x16--3-x8--|
A|---8-------8-\-7-\-3------5-\-3-\-1------1-----|
E|-----------------------------------------------|

You are young...

[Chorus]

Outlaws... when we were forever young...

Guitar 1:
e|------------------------------------------------------|
B|------------------------------------------------------|
G|-----------7--------3-----------------7--------3------| 
D|--3--------7-x16----3-x32----3--------7-x16----3-x28--|
A|--3-x16----5--------1--------3-x16----5--------1------|
E|--1--------------------------1------------------------|

Guitar 2:
e|--------------------------------------------------------|
B|--------------------------------------------------------|
G|--10--------7--------3--------10--------7--------3------| 
D|--10-x16----7-x16----3-x32----10-x16----7-x16----3-x28--|
A|---8--------5--------1---------8--------5--------1------|
E|--------------------------------------------------------|

[Chorus ending]
e|--------------|
B|--------------|
G|--3-----------|
D|--3-----------|
A|--1-/-4-\-1---|
E|--------------|

[Outro]
No guitar again. But you can play this:

I found a knife by the railroad track...
e|-----------------------------------|
B|----------------------------2------|
G|-----------7--------3-------3------|
D|--3--------7--------3-------3------|
A|--3--------5--------1-------1------|
E|--1--------------------------------|
    *PM      *PM      *PM     *PM

You'll roam...
e|-----|
B|-----|
G|-----|
D|--3--|
A|--3--|
E|--1--|

 
************************************

| /  Slide up
| \  Slide down
| x  Mute note 
| *  Palm mute 

************************************
Suggest correction
comments
print report bad tab
guest
You may want to rate the tab now too:
select rating
Wanna post a correction for this tab? Suggest correction