Oops, an error
Loading. Please wait.

Outlaws Bass Tab

version 2
version 2

Whole song

  • All my tabs are write of this way and i never have a problem.
322 views 15 this week
no commentswrite comment
1 2 3 4 5
x 3
add to favorites
launch autoscroll
font size
0
reset
guitar tuner
Autoscroll
slow
fast
+/-
esc
set tempo
stop
Help us to improve Ultimate-Guitar.com Take our survey!
×
Author
Difficulty
About this tab version
All my tabs are write of this way and i never have a problem. Was this info helpful? Yes No
Tabbed By:Josecar
Album:Revolution Radio
Band:Green day
Song:Outlaws
Date:2016
My YT Channel Of Bass Cover:https://www.youtube.com/channel/UCg9O-Rug1KEvY3jmKHY8R-Q
(Write me a coment if you want any bass tab)







[Intro]
G|---------------------------------------------------------------------------|
D|---------------------------------------------------------------------------|
A|-----------8-8-8-8-X4--5-5-5-5-X4------------------------------------------|
E|--6-6-6-6--------------------------6-6-6-6-X8------------------------------|


G|---------------------------------------------------------------------------|
D|---------------------------------------------------------------------------|
A|--8-8-8-8-X4--5-5-5-5-X4--------------8-8-8-8-X2---------------------------|
E|--------------------------6-6-6-6-X4---------------------------------------|


[Verse]
G|---------------------------------------------------------------------------|
D|---------------------------------------------------------------------------|
A|--8-8-8-8-X4--5-5-5-5-X4---------------------------------------------------|
E|--------------------------6-6-6-6-X8---------------------------------------|

G|---------------------------------------------------------------------------|
D|---------------------------------------------------------------------------|
A|--8-8-8-8-X4--5-5-5-5-X4---------------------------------------------------|
E|--------------------------6-6-6-6-X6---------------------------------------|



[Intro 2]
G|---------------------------------------------------------------------------|
D|---------------------------------------------------------------------------|
A|-----------8-8-8-8-X4--5-5-5-5-X4------------------------------------------|
E|--6-6-6-6--------------------------6-6-6-6-X8------------------------------|


G|---------------------------------------------------------------------------|
D|---------------------------------------------------------------------------|
A|--8-8-8-8-X4--5-5-5-5-X4--------------8-8-8-8-X2---------------------------|
E|--------------------------6-6-6-6-X4---------------------------------------|

[Verse 2]
G|---------------------------------------------------------------------------|
D|---------------------------------------------------------------------------|
A|--8-8-8-8-X4--5-5-5-5-X4---------------------------------------------------|
E|--------------------------6-6-6-6-X8---------------------------------------|

G|---------------------------------------------------------------------------|
D|---------------------------------------------------------------------------|
A|--8-8-8-8-X4--5-5-5-5-X4---------------------------------------------------|
E|--------------------------6-6-6-6-X8---------------------------------------|

[Outro]
G|----------------------------------------------------------------------------|
D|----------------------------------------------------------------------------|
A|----------------------5-5-5-5--5-5-5-5--------------------------------------|
E|--1-1-1-1--1-1-1-1----------------------6-6-6-6--6-6-6-6----6-6-6-6--6-6-6-6|

G|---------------------------------------------------------------------------|
D|---------------------------------------------------------------------------|
A|---------------------------------------------------------------------------|
E|---------------------------------------------------------------------------|


[Solo]
G|---------------------------------------------------------------------------|
D|---------------------------------------------------------------------------|
A|--8-8-8-8-X4--5-5-5-5-X4---------------------------------------------------|
E|--------------------------6-6-6-6-X8---------------------------------------|

[THIS To the END]
G|---------------------------------------------------------------------------|
D|---------------------------------------------------------------------------|
A|--8-8-8-8-X4--5-5-5-5-X4---------------------------------------------------|
E|--------------------------6-6-6-6-X8---------------------------------------|

G|---------------------------------------------------------------------------|
D|---------------------------------------------------------------------------|
A|--8-8-8-8-X4--5-5-5-5-X4---------------------------------------------------|
E|--------------------------6-6-6-6-X8---------------------------------------|

Suggest correction
Give kudos to tab author, rate the tab!
1 2 3 4 5
comments
print report bad tab
guest
You may want to rate the tab now too:
select rating
Wanna post a correction for this tab? Suggest correction