Oops, an error
Loading. Please wait.

Outlaws Tab

version 2
version 2

Whole song

835 views 36 this week
no commentswrite comment
1 2 3 4 5
x 5
add to favorites
launch autoscroll
font size
0
reset
how to read this tab
guitar tuner
Autoscroll
slow
fast
+/-
esc
set tempo
stop
Help us to improve Ultimate-Guitar.com Take our survey!
×
Author
Difficulty
novice
About this tab version
It's the full tab with solo. Was this info helpful? Yes No
INTRO
e|---------------------------------------------------------------------------|
B|---------------------------------------------------------------------------|
G|---------------------------------------------------------------------------|
D|--8-8-8-8------------------------------------------------------------------|
A|--8-8-8-8------------------------------------------------------------------|
E|--6-6-6-6---9-9---6--------------------------------------------------------|


VERSE
e|---------------------------------------------------------------------------|
B|--------------6-----------------------------------2------------------------|
G|-2------------7-----------3-----------------------3------------------------|
D|-3------------7-----------3-----------------------3------------------------|
A|-3------------5-----------1-----------------------1------------------------|
E|-1-------------------------------------------------------------------------|
   
   Life after youth Faded in twilight The dawn of a criminal in bloom

e|---------------------------------------------------------------------------|
B|----------------------6---------------------------------------2------------|
G|-------2--------------7------------------3--------------------3------------|
D|-------3--------------7------------------3--------------------3------------|
A|-------3--------------5------------------1--------------------1------------|
E|-------1-------------------------------------------------------------------|

  First love First forgiveness We were delinquants Freaks of a faded memory


CHORUS
e|---------------------------------------------------------------------------|
B|----------------------------------------------------2222222222222222-------|
G|------------------7777777777777777-3333333333333333-3333333333333333-------|
D|-3333333333333333-7777777777777777-3333333333333333-3333333333333333-------|
A|-3333333333333333-5555555555555555-1111111111111111-1111111111111111-------|
E|-1111111111111111----------------------------------------------------------|

e|---------------------------------------------------------------------------|
B|---------------------------------------------------------------------------|
G|------------------7777777777777777-3333333333333333------------------------|
D|-3333333333333333-7777777777777777-3333333333333333------------------------|
A|-3333333333333333-5555555555555555-1111111111111111------------------------|
E|-1111111111111111----------------------------------------------------------|


REPEAT VERSE


CHORUS
e|---------------------------------------------------------------------------|
B|----------------------------------------------------2222222222222222-------|
G|------------------7777777777777777-3333333333333333-3333333333333333-------|
D|-3333333333333333-7777777777777777-3333333333333333-3333333333333333-------|
A|-3333333333333333-5555555555555555-1111111111111111-1111111111111111-------|
E|-1111111111111111----------------------------------------------------------|

e|---------------------------------------------------------------------------|
B|----------------------------------------------------2222222222222222-------|
G|------------------7777777777777777-3333333333333333-3333333333333333-------|
D|-3333333333333333-7777777777777777-3333333333333333-3333333333333333-------|
A|-3333333333333333-5555555555555555-1111111111111111-1111111111111111-------|
E|-1111111111111111----------------------------------------------------------|



SOLO
e|---------------------------------------------------------------------------|
B|---------------------------------------------------------------------------|
G|--------1010/121212/1414141414-----------1010/121212/14141414--------------|
D|-33333---x-x--x-x-x--x-x-x-x-x----33333---x-x--x-x-x--x-x-x-x--------------|
A|-33333---8-8/101010/1212121212----33333---8-8/101010/12121212--------------|
E|-11111----------------------------11111------------------------------------|

e|---------------------------------------------------------------------------|
B|---------------------------------------------------------------------------|
G|-77777--1010/9-9-9/5-5-5-5-5----77777---1010/9-9-9/5-5-5-5-5---------------|
D|-77777---x-x-x-x-x-x-x-x-x-x----77777----x-x-x-x-x-x-x-x-x-x---------------|
A|-55555---8-8/7-7-7/3-3-3-3-3----55555----8-8/7-7-7/3-3-3-3-3---------------|
E|---------------------------------------------------------------------------|

e|---------------------------------------------------------------------------|
B|---------------------------------------------------------------------------|
G|-33333--1010/121212/1414141414----33333--1010/121212/14141414--------------|
D|-33333---x-x--x-x-x--x-x-x-x-x----33333---x-x--x-x-x--x-x-x-x--------------|
A|-11111---8-8/101010/1212121212----11111---8-8/101010/12121212--------------|
E|---------------------------------------------------------------------------|

e|---------------------------------------------------------------------------|
B|---------------------------------------------------------------------------|
G|-33333--1515/171717/1818181818----18181818---18181818--1818----------------|
D|-33333---x-x--x-x-x--x-x-x-x-x-----x-x-x-x----x-x-x-x---x-x----------------|
A|-11111--1313/151515/1616161616----16161616---16161616--1616----------------|
E|---------------------------------------------------------------------------|

                     RHYTHM GUITAR PLAYS CHORUS
e|---------------------------------------------------------------------------|
B|------------------------5--b6b5--------------------------------------------|
G|--/7---5--5~--------5------------/7--2~-----/5-5--3--------/5--5----3--/6~-|
D|----------------/7----------------------------------3~---------------------|
A|---------------------------------------------------------------------------|
E|---------------------------------------------------------------------------|

BRIDGE
e|---------------------------------------------------------------------------|
B|----------------------------------------------------22222222---------------|
G|------------------777777777777-7-5-3333333333333333-33333333---------------|
D|-333333333333-3-2-777777777777-7-5-3333333333333333-33333333-STOP----------|
A|-333333333333-3-2-555555555555-5-3-1111111111111111-11111111---------------|
E|-111111111111-1-0----------------------------------------------------------|

REPEAT CHORUS

OUTRO IS JUST PIANO 

************************************

| x   Dead note
| g   Grace note
| (n) Ghost note
| h   Hammer-on
| p   Pull-off
| r   Release
| >   Accented note
| t   Tapping
| b   Bend
| br  Bend release
| pb  Pre-bend
| pbr Pre-bend release
| /   Slide up
| \   Slide down
| ~   Vibrato
| s   Slap
| P   Pop
| PM  Palm mute
| TR  Trill
| N   Tremolo

************************************
Suggest correction
comments
print report bad tab
guest
You may want to rate the tab now too:
select rating
Wanna post a correction for this tab? Suggest correction