Oops, an error
Loading. Please wait.

Paper Lanterns Tab

version 2
version 2

Whole song

Interactive

5,715 views 1 this week
2 commentsread comments
1 2 3 4 5
accurate
x 8
add to favorites
launch autoscroll
font size
0
reset
how to read this tab
guitar tuner
Tab Pro tools
  • play this tab
  • loop segment
  • change instrument
  • show fretboard
  • metronome
×
Best way to learn
"Paper Lanterns"
Autoscroll
slow
fast
+/-
esc
set tempo
stop
Contributor
Green Day: Paper Lanterns
Album: 1039 Smoothed Out Slappy Hours
Down tune all guitars ½ step (Eb G# Db F# Bb eb)

Intro: (x4)
eb--------------------------------------------------------------------|
Bb--------------------------------------------------------------------|
F#-------------------9-—-9--------------------------------------------|
Db---9—--9---7---7---9---9---7----------------------------------------|
G#---9---9---7---7---9---9---7----------------------------------------|
Eb---9---9---7---7---9---9---7----------------------------------------|

Verse: (x2)
eb--------------------------------------------------------------------|
Bb--------------------------------------------------------------------|
F#---4—4-4-4-----------------------4-4-4-4-4-4-4-4---2-2-2-2----------|
Db---4-4-4-4---4-4-4-4---2-2-2-2---4-4-4-4-4-4-4-4---2-2-2-2----------|
G#---2-2-2-2---4-4-4-4---2-2-2-2---2-2-2-2-2-2-2-2---0-0-0-0----------|
Eb-------------2-2-2-2---0-0-0-0--------------------------------------|

eb-----------------------|
Bb-----------------------|
F#-------------4-4-4-4---|
Db---2-2-2-2---4-4-4-4---|
G#---2-2-2-2---2-2-2-2---|
Eb---0-0-0-0-------------|

Chorus:
eb--------------------------------------------------------------------|
Bb--------------------------------------------------------------------|
F#-----------------------4-4-4-4-4-4-4-4------------------------------|
Db---2-2-2-2---4-4-4-4---4-4-4-4-4-4-4-4---2-2-2-2---4-4-4-4----------|
G#---2-2-2-2---4-4-4-4---2-2-2-2-2-2-2-2---2-2-2-2---4-4-4-4----------|
Eb---0-0-0-0---2-2-2-2---------------------0-0-0-0---2-2-2-2----------|

eb--------------------------------------------------------------------|
Bb--------------------------------------------------------------------|
F#---4-4-4-4-------------2-2-2-2-2------------------------------------|
Db---4-4-4-4---6-6-6-6---2-2-2-2-2---2--------------------------------|
G#---2-2-2-2---6-6-6-6---0-0-0-0-0---2--------------------------------|
Eb-------------4-4-4-4---------------0--------------------------------|

Intro (x2)
Verse 
Chorus
Intro (x2)

Solo:
                  full        full        ~~~~ p         p   full
eb------------------------5-------------------------------------------|
Bb----------------------5---5-----------------------------------------|
F#---5-----5---5---7/(9)------7/(9)---7---5---7^5---5-5-7^5-7/(9)-----|
Db-----xx7---7------------------------------------7-------------------|
G#--------------------------------------------------------------------|
Eb--------------------------------------------------------------------|


                       p      p                    pick scrape
eb--------------------------------------------------------------------|
Bb---5-5-5-5----------------------------------------------------------|
F#---5-5-5-5----------------------------------------------------------|
Db------------7-5-7-5-7^5--—5-5-7^5---5---5--------7\-----------------|
G#------------------------7---------7---7---7---5----\----------------|
Eb----------------------------------------------------\---------------|

Chorus
Intro (x4)

This is my VERY own work so don't copy it and tell people it's yours. 
That's lame.
comments
print report bad tab
2 comments total.
+1 reply
Donkey Fly wrote on October 22 2005, 06:15 am

that intro is terrible but the rest is good 4/5

0 reply
xnimrodx1 wrote on April 18 2014, 06:50 am, edited at 06:51 am

000x00

I want to post or [tab]
guest
You may want to rate the tab now too:
select rating
Please do not post tabs as comments. Select "correction" instead!