Oops, an error
Loading. Please wait.

Peacemaker Bass Tab

version 3
version 3

Whole song

Interactive

883 views 1 this week
1 commentread comment
1 2 3 4 5
please rate
add to favorites
launch autoscroll
font size
0
reset
guitar tuner
Autoscroll
slow
fast
+/-
esc
set tempo
stop
Help us to improve Ultimate-Guitar.com Take our survey!
×
Author
Difficulty
intermediate
Green Day
Peacemaker
bassslappah44

INTRO
G|--------------------------------------------------------------------------|
D|--------------------------------------------------------------------------|
A|1717171717171717171717171717171717171717/-2---2220-0--020-0--2220-0--020-0|
E|---------------------------------------------------2------2-------2------2|

VERSE
G|----------------------------------------------------------------------|
D|----------------------------------------------------------------------|
A|-2220-0--020-0--2220-0--020-0--2220-0--020-2-4444444444444444444444444|
E|-----2------2-------2------2-------2------2---------------------------|

G|----------------------------|VERSE X2
D|----------------------------|
A|-2220-0--020-0--------------|
E|-----2------2---------------|

CHORUS
G|---------------------------------------------------------------------------|
D|---------------------------------------------------------------------------|
A|--4444444444444444222222222222224444444444444422222222222222222444444444444|
E|---------------------------------------------------------------------------|

G|------------------------------------------|
D|------------------------------------------|
A|2222222222222224444444444444-2220-0--020-0|
E|---------------------------------2------2-|
                                      |____|
PLAY VERSE 2 TIMES                     ^^^^

PLAY CHORUS EXCEPT FOR THE PART THAT I HAVE PUT ARROWS UNDER.(wait for the guitar part
end.) then play this...

G|--------------------------------------------------------------------------|
D|--------------------------------------------------------------------------|
A|-4444444444444444444444444444442222222222222222222222222222444444444444444|
E|--------------------------------------------------------------------------|

G|---------------------------------------------|
D|---------------------------------------------|
A|-22222222222222244444444444444422222222222222|
E|---------------------------------------------|

PLAY VERSE 1 TIME
THEN PLAY...

G|---------------|
D|---------------|X4
A|-2220-0--020-0-|
E|-----2------2--|

THEN...
Death to the ones at the end of the saraaaa..........

NAAAAAAAAAAAAADE!!!!!!!

G|---------------|
D|---------------|X2
A|-2220-0--020-0-|
E|-----2------2--|

-bassslappah44

| /  slide up
| \  slide down
| h  hammer-on
| p  pull-off
| ~  vibrato
| +  harmonic
| x  Mute note
Suggest correction
What's this?
You can suggest a correction to this tab. Community and Mods will review your correction and vote to approve or reject it.
comments
We did not receive enough feedback on this tab! Please rate:
print report bad tab
1 2 3 4 5
1 comment total.
0 reply
DrSeemann 62 wrote on March 29 2016, 01:39 pm

I don't know how "bassslappah44" comes to the conclusion to put the 4th fret of the A string into the tab, but it's clearly wrong.

guest
You may want to rate the tab now too:
select rating
Please do not post tabs as comments. Select "correction" instead!