Oops, an error
Loading. Please wait.

Platypus Bass Tab

version 2
version 2

Whole song

Interactive

1,349 views 1 this week
1 commentread comment
1 2 3 4 5
x 3
add to favorites
launch autoscroll
font size
0
reset
guitar tuner
Autoscroll
slow
fast
+/-
esc
set tempo
stop
Help us to improve Ultimate-Guitar.com Take our survey!
×
Author
Song: Platypus (I Hate You)
      By Green Day

Tuning: Standard

Intro/Bridge
          x4
G|----------|-------------|---------|
D|----------|-------------|---------|
A|----------|-Guitar Fill-|-7-------|
E|-77777732-|-------------|-----235-|

Verse
G|-------------------------|
D|-------------------------|
A|-------------77777-------|
E|-77777-55555-------77777-|

Chorus
G|---------------------------------------------|
D|---------------------------------------------|
A|----------------------------777--------------|
E|-55555555555555555555555555-----777777777777-|

G|--------------------------------------------|
D|--------------------------------------------|
A|--------------------------------------------|
E|-55555555555555555555555555-222222222222222-|

Chorus Fill
G|----------|
D|----------|
A|-777------|
E|----77777-|

Interlude
G|---------------------------------|
D|---------------------------------|
A|-------------------------9999999-|
E|-2222222-6666666-9999999---------|

Outro
G|-----------|
D|-----------|
A|-7---------|
E|-----23-57-|

Intro/Bridge x1
Verse x4
Chorus x1
Chorus Fill x4
Verse x6
Chorus x1
Chorus Fill x4
Intro/Bridge x8
Interlude x1
Verse x4
Chorus x1
Chorus Fill x4
Outro x1
Suggest correction
Give kudos to tab author, rate the tab!
1 2 3 4 5
comments
print report bad tab
1 comment total.
-1 reply
mrpenguin93 70 Jul 19, 2005 12:00 AM

sorry instead of playing this ate the end of intro and the outro
G|-----------|
D|-----------|
A|-7---------|
E|-----23-57-|

play

G|-----------|
D|-----------|
A|-7---------|
E|-----55-67-|

guest
You may want to rate the tab now too:
select rating
Wanna post a correction for this tab? Suggest correction