Oops, an error
Loading. Please wait.

Platypus Tab

version 2
version 2

Whole song

Interactive

5,077 views 3 this week
9 commentsread comments
1 2 3 4 5
x 19
add to favorites
launch autoscroll
font size
0
reset
how to read this tab
guitar tuner
×
Best way to learn
"Platypus"
Autoscroll
slow
fast
+/-
esc
set tempo
stop
----------------------------------------------------------------------------                     
Platypus (I Hate You) - Green Day
----------------------------------------------------------------------------
Tabbed by: Stumaster18
Email: I love you brittany :D
CD: Nimrod (1997), Track 8
Sick song to play. Hope you have fun with this. Correct version, Plz rate!!

Tuning: Standard


Intro:
e|------------------|
B|------------------|
G|------------------|   x4
D|------------------|
A|-9-9-9-9-9-9--5-4-|
E|-7-7-7-7-7-7--3-2-|

Intro Pt. 2:
e|----------------------------------------------------|
B|----------------------------------------------------|
G|----------------------------------------------------|
D|---------------------------9-9-9-9-9-9--------------|   <
            
                            
Suggest correction
comments
print report bad tab
9 comments total. Showing first comments.
+3 reply
bassman09 130 Jun 13, 2005 08:00 PM

what cd is this on? The intro/verses kinda sound like longview's chorus, hahahaha.

+2 reply
The Spoon 165 Feb 15, 2006 04:16 PM

geez no need to get defensive

+2 reply
JMQN123 10 Feb 22, 2007 10:37 AM

it sounds goos, but i play my bar chords with the third string,

---------------------------------------------------------
----9----------------------5-4---------------------------
----9----------------------5-4---------------------------
----7----------------------3-2---------------------------
---------------------------------------------------------

Yours still sounds fine though

guest
You may want to rate the tab now too:
select rating
Wanna post a correction for this tab? Suggest correction