Oops, an error
Loading. Please wait.

Platypus Bass Tab

version 3
version 3

Whole song

Interactive

862 views 3 this week
1 commentread comment
1 2 3 4 5
please rate
add to favorites
launch autoscroll
font size
0
reset
guitar tuner
Autoscroll
slow
fast
+/-
esc
set tempo
stop
Help us to improve Ultimate-Guitar.com Take our survey!
×
Author
Difficulty
novice
Hey i changed the intro so its the same as what mike plays, plus its easier.

Standard Tuning

Intro	
G|----------|----------|-----------|----------|
D|----------|----------|-----------|----------|
A|--222-----|--222-----|--222------|--222-----|
E|-----3-2--|-----3-2--|-----3-2---|------3-2-|

Verse (where lyrics come in)
G|------------------------------------|------------------------------------|
D|------------------------------------|------------------------------------|
A|-------------------7-7-7-7----------|-------------------7-7-7-7----------|
E|-7-7-7-7--5-5-5-5-----------7-7-7-7-|-7-7-7-7--5-5-5-5-----------7-7-7-7-|

Chorus
G|---------------------------------|---------------------------------|
D|---------------------------------|---------------------------------|
A|---------------------------------|---------------------------------|
E|-5-5-5-5-5-5-5-5-5-5-5-5-5-5-5-5-|-5-5-5-5-5-5-5-5-5-5-5-5-5-5-5-5-|

G|--------------------------------------|
D|--------------------------------------|
A|-777----------------------------------|
E|------7-7-7-7-7-7-7-7-7-7-7-7-7-7-7-7-|

Chorus part 2
G|---------------------------------|---------------------------------|
D|---------------------------------|---------------------------------|
A|---------------------------------|---------------------------------|
E|-5-5-5-5-5-5-5-5-5-5-5-5-5-5-5-5-|-5-5-5-5-5-5-5-5-5-5-5-5-5-5-5-5-|

G|---------------------------------|---------------------------------|
D|---------------------------------|---------------------------------|
A|---------------------------------|-777-------------777-------------|
E|-2-2-2-2-2-2-2-2-2-2-2-2-2-2-2-2-|-----7-7-7-7-7-7-----7-7-7-7-7-7-|

G|-----------------|---------------------------|
D|-----------------|---------------------------|
A|-777-------------|-777-----------------------|
E|-----7-7-7-7-7-7-|-----7-7-7-7-7-7-7-7-7-7-7-|

Bridge
G|------------------------------------------------------------------|
D|--------------------------------------------------4-4-4-4-4-4-4-4-|
A|-----------------1-1-1-1-1-1-1-1--4-4-4-4-4-4-4-4-----------------|
E|-2-2-2-2-2-2-2-2--------------------------------------------------|

Order

Intro
Intro part 2 (guitar only)
Verse x2
Chorus
Verse x3
Chorus
Intro x2
Bridge
Verse x2
Chorus
(Guitar outro)
Suggest correction
Give kudos to tab author, rate the tab!
1 2 3 4 5
comments
print report bad tab
1 comment total.
0 reply
shadowedwolf 10 wrote on May 15 2006, 10:04 pm

Very nice! Sounds correct when played with the song. Good job. :)

guest
You may want to rate the tab now too:
select rating
Please do not post tabs as comments. Select "correction" instead!