Oops, an error
Loading. Please wait.

Platypus Tab

version 4
version 4

Whole song

Interactive

3,312 views 3 this week
no commentswrite comment
1 2 3 4 5
please rate
add to favorites
launch autoscroll
font size
0
reset
how to read this tab
guitar tuner
Tab Pro tools
  • play this tab
  • loop segment
  • change instrument
  • show fretboard
  • metronome
×
Best way to learn
"Platypus"
Autoscroll
slow
fast
+/-
esc
set tempo
stop
Contributor
Difficulty
novice
#----------------------------------PLEASE NOTE---------------------------------#
#This file is the author's own work and represents their interpretation of the #
#song. You may only use this file for private study, scholarship, or research. #
#------------------------------------------------------------------------------#

PLATYPUS (I HATE YOU)
As recorded by Green Day
(From the 1997 Album NIMROD.)

Transcribed by Whoabot
        

Words and Music by Green Day
Arranged by Green Day

Gtr I (E A D G B E) - 'B.J. Armstrong'
Gtr II (E A D G B E) - 'B.J. Armstrong (Overdub in Studio)'

 Intro
  Q=173
       B5          G5  F#5     B5          G5  F#5
 1/8  4/4
  Gtrs I, II
  E    E S S S S E E S E S E   E S S S S E E S E S E
|---||-----------------------|-----------------------|
|---||-----------------------|-----------------------|
|---||-----------------------|-----------------------|
|---||-9-9-9-9-9-9-5-5-4-4-4-|-9-9-9-9-9-9-5-5-4-4-4-|
|---||-9-9-9-9-9-9-5-5-4-4-4-|-9-9-9-9-9-9-5-5-4-4-4-|
|---||-7-7-7-7-7-7-3-3-2-2-2-|-7-7-7-7-7-7-3-3-2-2-2-|


  B5          G5  F#5     B5          G5  F#5
  E S S S S E E S E S E   E S S S S E E S E S E
|-----------------------|-----------------------|
|-----------------------|-----------------------|
|-----------------------|-----------------------|
|-9-9-9-9-9-9-5-5-4-4-4-|-9-9-9-9-9-9-5-5-4-4-4-|
|-9-9-9-9-9-9-5-5-4-4-4-|-9-9-9-9-9-9-5-5-4-4-4-|
|-7-7-7-7-7-7-3-3-2-2-2-|-7-7-7-7-7-7-3-3-2-2-2-|


 Pre-Verse
  B5           A5            E5                      B5
  q     H.                    W
|--------------------------|-------------------------------------|
|--------------------------|-------------------------------------|
|--------------------------|-------------------------------------|
|-9------------------------|-------------------------------------|
|-9------------------------|-------------------------------------|
|-7------------------------|-------------------------------------|
|
| Gtr II
| E S S S  S E E S S S S E    E   S   S   S   S   E  E S S S S E
|--------------------------|-------------------------------------|
|--------------------------|-------------------------------------|
|--------------------------|--9---9---9---9---9---9--------------|
|-9-9-9-9--9-9-7-7-7-7-7-7-|--9---9---9---9---9---9--9-9-9-9-9-9-|
|-9-9-9-9--9-9-7-7-7-7-7-7-|--7---7---7---7---7---7--9-9-9-9-9-9-|
|-7-7-7-7--7-7-5-5-5-5-5-5-|-(0)-(0)-(0)-(0)-(0)-(0)-7-7-7-7-7-7-|


              A5             E5      A5  A#5
                            7/8
  W                           Q   Q  E E E
|-------------------------||----------------||
|-------------------------||----------------||
|-------------------------||--9-------------||
|-------------------------||--9------7-7-8--||
|-------------------------||--7------7-7-8--||
|-------------------------||-(0)-----5-5-6--||
|
| E S S S S E E S S S S E     Q   Q  E E E
|-------------------------||----------------||
|-------------------------||----------------||
|-------------------------||--9-------------||
|-9-9-9-9-9-9-7-7-7-7-7-7-||--9------7-7-8--||
|-9-9-9-9-9-9-7-7-7-7-7-7-||--7------7-7-8--||
|-7-7-7-7-7-7-5-5-5-5-5-5-||-(0)-----5-5-6--||


   Verse
    $
    B5          A5            E5                      B5
   4/4
    Gtrs I, II
    E S S S S E E S S S S E    E   S   S   S   S   E  E S S S S E
||--------------------------|-------------------------------------|
||o-------------------------|-------------------------------------|
||--------------------------|--9---9---9---9---9---9--------------|
||--9-9-9-9-9-9-7-7-7-7-7-7-|--9---9---9---9---9---9--9-9-9-9-9-9-|
||o-9-9-9-9-9-9-7-7-7-7-7-7-|--7---7---7---7---7---7--9-9-9-9-9-9-|
||--7-7-7-7-7-7-5-5-5-5-5-5-|-(0)-(0)-(0)-(0)-(0)-(0)-7-7-7-7-7-7-|


              A5            E5                      B5
  E S S S S E E S S S S E    E   S   S   S   S   E  E S S S S E
|-------------------------|-----------------------------------------||
|-------------------------|----------------------------------------o||
|-------------------------|--9---9---9---9---9---9------------------||
|-9-9-9-9-9-9-7-7-7-7-7-7-|--9---9---9---9---9---9--9-9-9-9-9-9-----||
|-9-9-9-9-9-9-7-7-7-7-7-7-|--7---7---7---7---7---7--9-9-9-9-9-9----o||
|-7-7-7-7-7-7-5-5-5-5-5-5-|-(0)-(0)-(0)-(0)-(0)-(0)-7-7-7-7-7-7-----||


   Pre-Chorus
    A5
    E S S S S E E S S S S E
||--------------------------|
||o-------------------------|
||--------------------------|
||--7-7-7-7-7-7-7-7-7-7-7-7-|
||o-7-7-7-7-7-7-7-7-7-7-7-7-|
||--5-5-5-5-5-5-5-5-5-5-5-5-|


  E S S S S E E S S S S E   E S S S S E E S S S S E
|-------------------------|--------------------------|
|-------------------------|--------------------------|
|-------------------------|--------------------------|
|-7-7-7-7-7-7-7-7-7-7-7-7-|-7-7-7-7-7-7-7-7-7-7-7-7--|
|-7-7-7-7-7-7-7-7-7-7-7-7-|-7-7-7-7-7-7-7-7-7-7-7-7--|
|-5-5-5-5-5-5-5-5-5-5-5-5-|-5-5-5-5-5-5-5-5-5-5-5-5--|


  1.
                E5
  E S S S S E E  E   E   E
|---------------------------|
|---------------------------|
|----------------9---9---9--|
|-7-7-7-7-7-7-7--9---9---9--|
|-7-7-7-7-7-7-7--7---7---7--|
|-5-5-5-5-5-5-5-(0)-(0)-(0)-|


  B5
  E S S S S E E S S S S E   E S S S S E E S S S S E
|-------------------------|--------------------------||
|-------------------------|-------------------------o||
|-------------------------|--------------------------||
|-9-9-9-9-9-9-9-9-9-9-9-9-|-9-9-9-9-9-9-9-9-9-9-9-9--||
|-9-9-9-9-9-9-9-9-9-9-9-9-|-9-9-9-9-9-9-9-9-9-9-9-9-o||
|-7-7-7-7-7-7-7-7-7-7-7-7-|-7-7-7-7-7-7-7-7-7-7-7-7--||


  2.
  A5                        F#
  E S S S S E E S S S S E    E   S   S   S   S   E   E   S   S   S   S   E
|-------------------------|-------------------------------------------------|
|-------------------------|-------------------------------------------------|
|-------------------------|-(3)-(3)-(3)-(3)-(3)-(3)-(3)-(3)-(3)-(3)-(3)-(3)-|
|-7-7-7-7-7-7-7-7-7-7-7-7-|--4---4---4---4---4---4---4---4---4---4---4---4--|
|-7-7-7-7-7-7-7-7-7-7-7-7-|--4---4---4---4---4---4---4---4---4---4---4---4--|
|-5-5-5-5-5-5-5-5-5-5-5-5-|--2---2---2---2---2---2---2---2---2---2---2---2--|


                              E5
   E   S   S   S   S   E   E   E   E   E
|-----------------------------------------||
|-----------------------------------------||
|-(3)-(3)-(3)-(3)-(3)-(3)-(3)--9---9---9--||
|--4---4---4---4---4---4---4---9---9---9--||
|--4---4---4---4---4---4---4---7---7---7--||
|--2---2---2---2---2---2---2--(0)-(0)-(0)-||


 Chorus
  B5            E5            B5            E5
  E S S S S E E  E   E   E    E S S S S E E  E   E   E
|---------------------------|---------------------------|
|---------------------------|---------------------------|
|----------------9---9---9--|----------------9---9---9--|
|-9-9-9-9-9-9-9--9---9---9--|-9-9-9-9-9-9-9--9---9---9--|
|-9-9-9-9-9-9-9--7---7---7--|-9-9-9-9-9-9-9--7---7---7--|
|-7-7-7-7-7-7-7-(0)-(0)-(0)-|-7-7-7-7-7-7-7-(0)-(0)-(0)-|


                                             To Coda
  B5            E5            B5
  E S S S S E E  E   E   E    E S S S S E E S S S S E
|---------------------------|-------------------------||
|---------------------------|-------------------------||
|----------------9---9---9--|-------------------------||
|-9-9-9-9-9-9-9--9---9---9--|-9-9-9-9-9-9-9-9-9-9-9-9-||
|-9-9-9-9-9-9-9--7---7---7--|-9-9-9-9-9-9-9-9-9-9-9-9-||
|-7-7-7-7-7-7-7-(0)-(0)-(0)-|-7-7-7-7-7-7-7-7-7-7-7-7-||


 Pre-Verse
  B5          A5            E5                      B5
  E S S S S E E S S S S E    E   S   S   S   S   E  E S S S S E
|-------------------------|-------------------------------------|
|-------------------------|-------------------------------------|
|-------------------------|--9---9---9---9---9---9--------------|
|-9-9-9-9-9-9-7-7-7-7-7-7-|--9---9---9---9---9---9--9-9-9-9-9-9-|
|-9-9-9-9-9-9-7-7-7-7-7-7-|--7---7---7---7---7---7--9-9-9-9-9-9-|
|-7-7-7-7-7-7-5-5-5-5-5-5-|-(0)-(0)-(0)-(0)-(0)-(0)-7-7-7-7-7-7-|


                                                  D.S. al Coda
              A5            E5                      B5
  E S S S S E E S S S S E    E   S   S   S   S   E  E S S S S E
|-------------------------|---------------------------------------||
|-------------------------|---------------------------------------||
|-------------------------|--9---9---9---9---9---9----------------||
|-9-9-9-9-9-9-7-7-7-7-7-7-|--9---9---9---9---9---9--9-9-9-9-9-9---||
|-9-9-9-9-9-9-7-7-7-7-7-7-|--7---7---7---7---7---7--9-9-9-9-9-9---||
|-7-7-7-7-7-7-5-5-5-5-5-5-|-(0)-(0)-(0)-(0)-(0)-(0)-7-7-7-7-7-7---||


 Salty Interlude
  &
  B5          G5  F#5     B5          G5  F#5
  E S S S S E E S E S E   E S S S S E E S E S E
|-----------------------|-----------------------|
|-----------------------|-----------------------|
|-----------------------|-----------------------|
|-9-9-9-9-9-9-5-5-4-4-4-|-9-9-9-9-9-9-5-5-4-4-4-|
|-9-9-9-9-9-9-5-5-4-4-4-|-9-9-9-9-9-9-5-5-4-4-4-|
|-7-7-7-7-7-7-3-3-2-2-2-|-7-7-7-7-7-7-3-3-2-2-2-|


  B5          G5  F#5     B5          G5  F#5
  E S S S S E E S E S E   E S S S S E E S E S E
|-----------------------|-------------------------|
|-----------------------|-------------------------|
|-----------------------|-------------------------|
|-9-9-9-9-9-9-5-5-4-4-4-|-9-9-9-9-9-9-5-5-4-4-4---|
|-9-9-9-9-9-9-5-5-4-4-4-|-9-9-9-9-9-9-5-5-4-4-4---|
|-7-7-7-7-7-7-3-3-2-2-2-|-7-7-7-7-7-7-3-3-2-2-2---|


  B5          G5  F#5     B5          G5  F#5
  E S S S S E E S E S E   E S S S S E E S E S E
|-----------------------|-----------------------|
|-----------------------|-----------------------|
|-----------------------|-----------------------|
|-9-9-9-9-9-9-5-5-4-4-4-|-9-9-9-9-9-9-5-5-4-4-4-|
|-9-9-9-9-9-9-5-5-4-4-4-|-9-9-9-9-9-9-5-5-4-4-4-|
|-7-7-7-7-7-7-3-3-2-2-2-|-7-7-7-7-7-7-3-3-2-2-2-|


  B5          G5  F#5     B5          G5  F#5 E5
  E S S S S E E S E S E   E S S S S E E S E S E
|-----------------------|-------------------------|
|-----------------------|-------------------------|
|-----------------------|-------------------------|
|-9-9-9-9-9-9-5-5-4-4-4-|-9-9-9-9-9-9-5-5-4-4-----|
|-9-9-9-9-9-9-5-5-4-4-4-|-9-9-9-9-9-9-5-5-4-4-2---|
|-7-7-7-7-7-7-3-3-2-2-2-|-7-7-7-7-7-7-3-3-2-2-0---|


  (F#)
  Gtr I
  E S S S S S S E S S S S S S   E S S S S S S E S S S S S S
|-----------------------------|-----------------------------|
|-----------------------------|-----------------------------|
|-----------------------------|-----------------------------|
|-----------------------------|-----------------------------|
|-----------------------------|-----------------------------|
|-2-2-2-2-2-2-2-2-2-2-2-2-2-2-|-2-2-2-2-2-2-2-2-2-2-2-2-2-2-|
|
| Gtr II
| E S S S S S S E S S S S S S   E S S S S S S E S S S S S S
|-----------------------------|-----------------------------|
|-----------------------------|-----------------------------|
|-----------------------------|-----------------------------|
|-----------------------------|-----------------------------|
|-1-1-1-1-1-1-1-1-1-1-1-1-1-1S|=4-4-4-4-4-4-4-4-4-4-4-4-4-4S|
|-----------------------------|-----------------------------|


  E S S S S S S E S S S S S S    E  S  S  S  S  S  S  S  S  S  S  E     E
|-----------------------------|----------------------------------------------||
|-----------------------------|----------------------------------------------||
|-----------------------------|----------------------------------------------||
|-----------------------------|-----------------------------------------4----||
|-----------------------------|-----------------------------------------4----||
|-2-2-2-2-2-2-2-2-2-2-2-2-2-2-|--2--2--2--2--2--2--2--2--2--2--2--2----------||
|
| E S S S S S S E S S S S S S    E  S  S  S  S  S  S  S  S  S  S  S  S  E
|-----------------------------|----------------------------------------------||
|-----------------------------|----------------------------------------------||
|-----------------------------|----------------------------------------------||
|-----------------------------|----------------------------------------------||
|-9-9-9-9-9-9-9-9-9-9-9-9-9-9S|=13-13-13-13-13-13-13-13-13-13-13-13-13-13----||
|-----------------------------|----------------------------------------------||


   Verse
    B5          A5            E5                      B5
    Gtrs I, II
    E S S S S E E S S S S E    E   S   S   S   S   E  E S S S S E
||--------------------------|-------------------------------------|
||o-------------------------|-------------------------------------|
||--------------------------|--9---9---9---9---9---9--------------|
||--9-9-9-9-9-9-7-7-7-7-7-7-|--9---9---9---9---9---9--9-9-9-9-9-9-|
||o-9-9-9-9-9-9-7-7-7-7-7-7-|--7---7---7---7---7---7--9-9-9-9-9-9-|
||--7-7-7-7-7-7-5-5-5-5-5-5-|-(0)-(0)-(0)-(0)-(0)-(0)-7-7-7-7-7-7-|


              A5            E5                      B5
  E S S S S E E S S S S E    E   S   S   S   S   E  E S S S S E
|-------------------------|---------------------------------------||
|-------------------------|--------------------------------------o||
|-------------------------|--9---9---9---9---9---9----------------||
|-9-9-9-9-9-9-7-7-7-7-7-7-|--9---9---9---9---9---9--9-9-9-9-9-9---||
|-9-9-9-9-9-9-7-7-7-7-7-7-|--7---7---7---7---7---7--9-9-9-9-9-9--o||
|-7-7-7-7-7-7-5-5-5-5-5-5-|-(0)-(0)-(0)-(0)-(0)-(0)-7-7-7-7-7-7---||


   Pre-Chorus
    A5
    E S S S S E E S S S S E
||--------------------------|
||o-------------------------|
||--------------------------|
||--7-7-7-7-7-7-7-7-7-7-7-7-|
||o-7-7-7-7-7-7-7-7-7-7-7-7-|
||--5-5-5-5-5-5-5-5-5-5-5-5-|


  E S S S S E E S S S S E   E S S S S E E S S S S E
|-------------------------|--------------------------|
|-------------------------|--------------------------|
|-------------------------|--------------------------|
|-7-7-7-7-7-7-7-7-7-7-7-7-|-7-7-7-7-7-7-7-7-7-7-7-7--|
|-7-7-7-7-7-7-7-7-7-7-7-7-|-7-7-7-7-7-7-7-7-7-7-7-7--|
|-5-5-5-5-5-5-5-5-5-5-5-5-|-5-5-5-5-5-5-5-5-5-5-5-5--|


  1.
                E5
  E S S S S E E  E   E   E
|---------------------------|
|---------------------------|
|----------------9---9---9--|
|-7-7-7-7-7-7-7--9---9---9--|
|-7-7-7-7-7-7-7--7---7---7--|
|-5-5-5-5-5-5-5-(0)-(0)-(0)-|


  B5
  E S S S S E E S S S S E   E S S S S E E S S S S E
|-------------------------|--------------------------||
|-------------------------|-------------------------o||
|-------------------------|--------------------------||
|-9-9-9-9-9-9-9-9-9-9-9-9-|-9-9-9-9-9-9-9-9-9-9-9-9--||
|-9-9-9-9-9-9-9-9-9-9-9-9-|-9-9-9-9-9-9-9-9-9-9-9-9-o||
|-7-7-7-7-7-7-7-7-7-7-7-7-|-7-7-7-7-7-7-7-7-7-7-7-7--||


  2.
  A5                        F#
  E S S S S E E S S S S E    E   S   S   S   S   E   E   S   S   S   S   E
|-------------------------|-------------------------------------------------|
|-------------------------|-------------------------------------------------|
|-------------------------|-(3)-(3)-(3)-(3)-(3)-(3)-(3)-(3)-(3)-(3)-(3)-(3)-|
|-7-7-7-7-7-7-7-7-7-7-7---|--4---4---4---4---4---4---4---4---4---4---4---4--|
|-7-7-7-7-7-7-7-7-7-7-7-0-|--4---4---4---4---4---4---4---4---4---4---4---4--|
|-5-5-5-5-5-5-5-5-5-5-5-0-|--2---2---2---2---2---2---2---2---2---2---2---2--|


                              E5
   E   S   S   S   S   E   E   E   E   E
|-----------------------------------------||
|-----------------------------------------||
|-(3)-(3)-(3)-(3)-(3)-(3)-(3)--9---9---9--||
|--4---4---4---4---4---4---4---9---9---9--||
|--4---4---4---4---4---4---4---7---7---7--||
|--2---2---2---2---2---2---2--(0)-(0)-(0)-||


 Chorus
  B5            E5            B5            E5
  E S S S S E E  E   E   E    E S S S S E E  E   E   E
|---------------------------|---------------------------|
|---------------------------|---------------------------|
|----------------9---9---9--|----------------9---9---9--|
|-9-9-9-9-9-9-9--9---9---9--|-9-9-9-9-9-9-9--9---9---9--|
|-9-9-9-9-9-9-9--7---7---7--|-9-9-9-9-9-9-9--7---7---7--|
|-7-7-7-7-7-7-7-(0)-(0)-(0)-|-7-7-7-7-7-7-7-(0)-(0)-(0)-|


  B5            E5            B5
  E S S S S E E  E   E   E    E S S S S E E S S S S E
|---------------------------|-------------------------||
|---------------------------|-------------------------||
|----------------9---9---9--|-------------------------||
|-9-9-9-9-9-9-9--9---9---9--|-9-9-9-9-9-9-9-9-9-9-9-9-||
|-9-9-9-9-9-9-9--7---7---7--|-9-9-9-9-9-9-9-9-9-9-9-9-||
|-7-7-7-7-7-7-7-(0)-(0)-(0)-|-7-7-7-7-7-7-7-7-7-7-7-7-||


 Outro
  B5           A5
  Gtr I
  q     H.
|--------------------------|
|--------------------------|
|--------------------------|
|-9------------------------|
|-9------------------------|
|-7------------------------|
|
| Gtr II
| E S S S  S E E S S S S E
|--------------------------|
|--------------------------|
|--------------------------|
|-9-9-9-9--9-9-7-7-7-7-7-7-|
|-9-9-9-9--9-9-7-7-7-7-7-7-|
|-7-7-7-7--7-7-5-5-5-5-5-5-|


  E5                      B5                        A5
   W                                    W
|-------------------------------------|-------------------------||
|-------------------------------------|-------------------------||
|-------------------------------------|-------------------------||
|-------------------------------------|-------------------------||
|-------------------------------------|-------------------------||
|-------------------------------------|-------------------------||
|
|  E   S   S   S   S   E  E S S S S E   E S S S S E E S S S S E
|-------------------------------------|-------------------------||
|-------------------------------------|-------------------------||
|--9---9---9---9---9---9--------------|-------------------------||
|--9---9---9---9---9---9--9-9-9-9-9-9-|-9-9-9-9-9-9-7-7-7-7-7-7-||
|--7---7---7---7---7---7--9-9-9-9-9-9-|-9-9-9-9-9-9-7-7-7-7-7-7-||
|-(0)-(0)-(0)-(0)-(0)-(0)-7-7-7-7-7-7-|-7-7-7-7-7-7-5-5-5-5-5-5-||


  E5        A5  A#5 B5
  Gtrs I, II
   Q   Q.   E E E   Q.   E H      W
|-----------------|-------------|------*|
|-----------------|-------------|------*|
|--9--------------|-------------|------*|
|--9--------7-7-8-|-9\----------|------*|
|--7--------7-7-8-|-9\----------|------*|
|-(0)-------5-5-6-|-7\----------|------*|



Duration Legend
---------------
W - whole; H - half; Q - quarter; E - 8th; S - 16th; T - 32nd; X - 64th; a - acciaccatura
+ - note tied to previous; . - note dotted; .. - note double dotted
Uncapitalized letters represent notes that are staccato (1/2 duration)
Irregular groupings are notated above the duration line
Duration letters will always appear directly above the note/fret number it represents the
duration for.  Duration letters with no fret number below them represent rests.  Multi-
bar rests are notated in the form Wxn, where n is the number of bars to rest for.  Low
melody durations appear below the staff

Tablature Legend
----------------
 h   - hammer-on
 p   - pull-off
 b   - bend
 pb  - pre-bend
 r   - bend release (if no number after the r, then release immediately)
 /\  - slide into or out of (from/to "nowhere")
 s   - legato slide
 S   - shift slide
 - natural harmonic
[n]  - artificial harmonic
n(n) - tapped harmonic
 ~   - vibrato
 tr  - trill
 T   - tap
 TP  - trem. picking
 PM  - palm muting
\n/  - tremolo bar dip; n = amount to dip
 \n  - tremolo bar down
 n/  - tremolo bar up
/n\  - tremolo bar inverted dip
 =   - hold bend; also acts as connecting device for hammers/pulls
 <> - volume swell (louder/softer)
 x   - on rhythm slash represents muted slash
 o   - on rhythm slash represents single note slash

Misc Legend
-----------
 |  - bar
||  - double bar
||o - repeat start
o|| - repeat end
*|  - double bar (ending)
 :  - bar (freetime)
 $  - Segno
 &  - Coda
Tempo markers -  = BPM(8/16=s8/s16), where s8 = swing 8ths, s16 = swing 16ths
comments
We did not receive enough feedback on this tab! Please rate:
print report bad tab
1 2 3 4 5
I want to post or [tab]
guest
You may want to rate the tab now too:
select rating
Please do not post tabs as comments. Select "correction" instead!