Oops, an error
Loading. Please wait.

Poprocks And Coke Bass Tab

version 1
version 1

Whole song

Interactive

8,776 views 9 this week
13 commentsread comments
1 2 3 4 5
accurate
x 19
add to favorites
launch autoscroll
font size
0
reset
guitar tuner
Tab Pro tools
  • play this tab
  • loop segment
  • change instrument
  • show fretboard
  • metronome
×
Best way to learn
"Poprocks And Coke"
Autoscroll
slow
fast
+/-
esc
set tempo
stop
GREEN DAY - POPROCKS & COKE
tabbed by blink1skate2@hotmail.com
one of the new songs, and one of the best, off their new album 'International Superhits'

INTRO
G|--------------------------|
D|--------------------------|
A|----------------------7-7-|
E|-5-55-5-5-55--5-55-55-----|

VERSE 1 X 2
G|-------------------------------------------------
D|-------------------------------------------------
A|-------------5-55-5-5-55-------------7-77-7-7-77-
E|-5-55-5-5-55-------------5-55-5-5-55-------------

G|-------------------------|
D|-------------------------|
A|-5-55-5-5-55-------------|
E|-------------5-55-5-5-55-|

CHORUS
G|--------------------------------------------|
D|--------------------------------------------|
A|---------------5-0-2222-5555--5-0-2222-5555-|
E|-5-0-2222-5555------------------------------|

INTRO

VERSE 2
G|-------------------------------------------------
D|-------------------------------------------------
A|----------5-55-5-5-55-------------7-77-7-7-77----
E|-5--------------------5-55-5-5-55----------------

G|-------------------------|
D|-------------------------|
A|-5-55-5-5-55-------------|
E|-------------5-55-5-5-55-|

CHORUS

BRIDGE
G|----------------------------------------------------
D|----------------------------------------------------
A|----------------------------------------------------
E|-5-55-5-5-55--5-55-5-5-55-0-2-22-2-2-04-5-55-5-5-55-

G|----------------------------------------------------------
D|----------------------------------------------------------
A|-04-5-55-5-5-554------------------------------------------
E|-----------------5-55-5-5-55-0-2-22-2-2-22-04-5-55-5-5-55-

G|--------------------------------------|
D|--------------------------------------|
A|-04-5555555555555555-7777777777777777-|
E|--------------------------------------|

VERSE 2
CHORUS

FINAL CHORUS END
G|------------------
D|------------------
A|-5-0-222222222222-
E|------------------

OUTRO X 3
G|--------------|---|
D|--------------|---|
A|-----------77-|---|
E|-5-55-5-55----|-5-|
comments
print report bad tab
13 comments total. Showing first comments.
0 reply
BassistCKY311 wrote on April 6 2002, 12:00 am

Good job! Tab is perfect!

0 reply
Jondarex wrote on April 13 2002, 12:00 am

i think you missed a part i was playing it with the song and i sorta jumped about 20seconds ahead with the tab

0 reply
Jondarex wrote on April 13 2002, 12:00 am

oh never mind my bad

I want to post or [tab]
guest
You may want to rate the tab now too:
select rating
Please do not post tabs as comments. Select "correction" instead!