Oops, an error
Loading. Please wait.

Private Ale Tab

version 2
version 2

Whole song

Interactive

2,000 views 1 this week
no commentswrite comment
1 2 3 4 5
excellent!
x 4
add to favorites
launch autoscroll
font size
0
reset
how to read this tab
guitar tuner
Autoscroll
slow
fast
+/-
esc
set tempo
stop
Help us to improve Ultimate-Guitar.com Take our survey!
×
Private Ale
Green Day
Kerplunk! (1992)
Lyrics: Billie Joe Armstrong
Music: Green Day
Tuning: 1/2 step down (sounds a semitone lower than written here)
Notes: The end of the chorus is the same as one of the All The
Time riffs.

h = hammer-on
p = pull-off
b = bend
/ = slide up
\ = slide down
5 = power chord

Intro
   A5 (PM)
e|--------------/10\9\7-\5--/15-14-12----------------------------|
B|---------------------------------------------------------------|
G|---------------------------------------------------------------|
D|-7-------------------------------------------------------------|
A|-7-------------------------------------------------------------|
E|-5-------------------------------------------------------------|

Verse (x2)
   A5 (PM)  D5   A5
e|---------------------------------------------------------------|
B|---------------------------------------------------------------|
G|----------7----------------------------------------------------|
D|-7--------7----7-----------------------------------------------|
A|-7--------5----7-----------------------------------------------|
E|-5-------------5-----------------------------------------------|

Chorus
   D5 A5 E5 (x4)  G#5/A5   G5 D5  (x4)
e|---------------------------------------------------------------|
B|---------------------------------------------------------------|
G|-7-----9--------------------7----------------------------------|
D|-7--7--9----------6/7----5--7----------------------------------|
A|-5--7--7----------6/7----5--5----------------------------------|
E|----5-------------4/5----3-------------------------------------|

Bridge
  A5 C#5 G5  (x4)  A5 (PM)  (A5   D5  x3)
e|---------------------------------------------------------------|
B|---------------------------------------------------------------|
G|----6---------------------------7------------------------------|
D|-7--6--5---------7---------7----7------------------------------|
A|-7--4--5---------7---------7----5------------------------------|
E|-5-----3---------5---------5-----------------------------------|

End (Guitar 1)                     (Guitar 2)
       E5                          A5 C#5 G5
e|---------------------------------------------------------------|
B|---------------------------------------------------------------|
G|-----9-9-9---------------------------6-------------------------|
D|-----9-9-9------------------------7--6--5----------------------|
A|-----7-7-7------------------------7--4--5----------------------|
E|----------------------------------5-----3----------------------|


Order

Intro
Verse 1
Chorus
Verse 2
Chorus
Bridge
Chorus


Lyrics

I wander down these streets all by myself
Think of my future now, I just don't know
Well I don't seem to care
I stop to notice that I'm by your home
I wonder if you're sitting all alone
Or is your boyfriend there?

Because I feel so right
Let my imagination go
Until you're in my sights
And through my veins temptation flows

So I sit down here on the hard concrete
Think of my future now, I just don't know
Well I don't seem to care
I stop to notice that I'm by your home
I wonder if you're sitting all alone
Or is your boyfriend there?

(Chorus)
(Bridge)
(Chorus)
(End)
Suggest correction
comments
print report bad tab
guest
You may want to rate the tab now too:
select rating
Please do not post tabs as comments. Select "correction" instead!