Oops, an error
Loading. Please wait.

Prosthetic Head Bass Tab

version 3
version 3

Whole song

Interactive

2,810 views 15 this week
no commentswrite comment
1 2 3 4 5
excellent!
x 5
add to favorites
launch autoscroll
font size
0
reset
guitar tuner
Autoscroll
slow
fast
+/-
esc
set tempo
stop
Help us to improve Ultimate-Guitar.com Take our survey!
×
Author
----------------------------------------------------------------------------
                         Prosthetic Head-Green Day
----------------------------------------------------------------------------
Album:Nimrod
Tuning:Standard

Tabbed by:WARNINGnimrod12
Email:WARNINGnimrod182@aim.com



  INTRO(no bass)

  VERSE x4
 
   G|-------------------------------------------------------------|
   D|-------------------------------------------------------------|
   A|---7-7-----------5-5-----------7-7-----------5-5-------------| 
   E|--------7--7-7-5------5--5-5-7------7--7-7-5------5--5-5-7---|


  PRE-CHORUS

   G|------------------------------------------------------------------|
   D|------------------------------------------------------------------|
   A|-------------------------------7------------------------------7---|
   E|---6h7-7-7-7-7-7-7-7-7-7-7-7-7----6h7-7-7-7-7-7-7-7-7-7-7-7-7-----|


   G|--------------------------------------------------------------------|
   D|--------------------------------------------------------------------|
   A|-------------------------------7------------------------------------|
   E|---6h7-7-7-7-7-7-7-7-7-7-7-7-7----6h7-7-7-7-7-7-7-7-7-7-7-7-7-7-7---|


  CHORUS x4

   G|----------------------------------|
   D|----------------------------------|
   A|---7-7-----------5-5-4------------|
   E|--------7--7-7-5-------5--5-5-7---|


  VERSE 2 x4

  PRE-CHORUS 2

  CHORUS 2 x8

  BRIDGE 

   G|----------------------------------------------------------|
   D|----------------------------------------------------------|
   A|-------6-7-----------------------6-----4-5--5-4-----------| x4
   E|---7---------4-5--5-4-2--2-5-7-----5------------5-5-5-6---|


   G|-------------------------------------|
   D|-------------------------------------|
   A|-------------------------------------|
   E|---7-7-7-7-7-7-7-7-7-7-7-7-7-7-7-7---|


  VERSE 3(no bass)

  CHORUS 3 x8

  After the last chorus, just do this...

   G|-------|
   D|-------|
   A|---7---|
   E|-------|

      And that's Prosthetic Head!


   ORDER:

   INTRO
   VERSE x4
   PRE-CHORUS
   CHORUS x4
   VERSE 2 x4
   PRE-CHORUS 2
   CHORUS 2 x8
   BRIDGE
   VERSE 3
   CHORUS 3 x8(with E note at the end)
   
Suggest correction
What's this?
You can suggest a correction to this tab. Community and Mods will review your correction and vote to approve or reject it.
comments
print report bad tab
guest
You may want to rate the tab now too:
select rating
Please do not post tabs as comments. Select "correction" instead!