Oops, an error
Loading. Please wait.

Pulling Teeth Tab

version 1
version 1

Whole song

Interactive

23,647 views 39 this week
3 commentsread comments
1 2 3 4 5
accurate
x 9
add to favorites
launch autoscroll
font size
0
reset
how to read this tab
guitar tuner
Tab Pro tools
  • play this tab
  • loop segment
  • change instrument
  • show fretboard
  • metronome
×
Best way to learn
"Pulling Teeth"
Autoscroll
slow
fast
+/-
esc
set tempo
stop
Green Day - Pulling Teeth
Snails (Rainflare@yahoo.com)


Intro
e|--------------------------|
B|---------44444444-44444-5-|
G|-444-4---44444444-44444-4-|
D|-444-4---44444444-44444-4-|
A|-222-2---22222222-00000-4-|
E|--------------------------|

Verse
e|-00000-00000-00000-22222-00000-00000-000-222-00000-|
B|-00000-22222-00000-44444-00000-22222-000-444-00000-|
G|-11111-22222-11111-44444-11111-22222-111-444-11111-|
D|-22222-22222-22222-44444-22222-22222-222-444-22222-|
A|-22222-00000-22222-22222-22222-00000-222-222-22222-|
E|-00000-------00000-------00000-------000-----00000-|

Chorus
e|----44----44----44----55-00000-0-------0-------|
B|----55----55----55----55-00000---0-------0-----|
G|-66-66-66-66-66-66-66-66-11111-----1-------1---|
D|-66-66-66-66-66-66-66-66-22222-------2-------2-|
A|-44-44-44-44-44-44-44-44-22222-----------------|
E|-------------------------00000-----------------|

e|----44----44----44----55----------------|
B|----55----55----55----55-44444444-44444-|
G|-66-66-66-66-66-66-66-66-44444444-44444-|
D|-66-66-66-66-66-66-66-66-44444444-44444-|
A|-44-44-44-44-44-44-44-44-22222222-22222-|
E|----------------------------------------|

Solo
e|-0-0----0000------0-0-------------------000-000--0-0--0-0-0--0-0-000--0-0-0-|
B|-2-0---------1/22-2-2-1/22-44-55-77-5-4-555-999-10-9-121212-1010-999-101010-|
G|-----1/22222-1/22-----1/22-44-66-88-6-4-------------------------------------|
D|----------------------1/22--------------------------------------------------|
A|----------------------------------------------------------------------------|
E|----------------------------------------------------------------------------|

e|-000-00-0-12----12---12-|
B|-999-77-5----12---12----|
D|------------------------|
A|------------------------|
E|------------------------|

Outro
e|-00000-00000-00000-22222-00000-00000-0-2-0-2-0-|
B|-00000-22222-00000-44444-00000-22222-0-4-2-4-0-|
G|-11111-22222-11111-44444-11111-22222-1-4-2-4-1-|
D|-22222-22222-22222-44444-22222-22222-2-4-2-4-2-|
A|-22222-00000-22222-22222-22222-00000-2-2-0-2-2-|
E|-00000-------00000-------00000-------0-------0-|

Group: Green Day
Album: Dookie
Released: 1994 reprise records
Track: 6
Title: pulling teeth


intro

|-------------|
|-------------|
|-------------|
|-8-8-8---8---|
|-8-8-8---8---|
|-6-6-6---6---|

|---------------------------------|
|---------------------------------|
|-----------------------------5---|
|-8-8-8-8-8-8-8-8-6-6-6-6-6-6-5-6-|
|-8-8-8-8-8-8-8-8-6-6-6-6-6-6-3-6-|
|-6-6-6-6-6-6-6-6-4-4-4-4-4-4---4-|

verse

|-----------------------------------------------------------------
|-----------------------------------------------------------------
|-8--8--8-8-8---------------8--8--8-8-8---------------8--8--8-8-8-
|-8--8--8-8-8-6--6-6--6-6-6-8--8--8-8-8-8--8-8--8-8-8-8--8--8-8-8-
|-6--6--6-6-6-6--6-6--6-6-6-6--6--6-6-6-8--8-8--8-8-8-6--6--6-6-6-
|-------------4--4-4--4-4-4-------------6--6-6--6-6-6-------------

 --------------------------------------|
 --------------------------------------|
 ---------------8--8-8--------8--8-8-8-|
 -6--6-6--6-6-6-8--8-8-8--8-8-8--8-8-8-|
 -6--6-6--6-6-6-6--6-6-8--8-8-6--6-6-6-|
 -4--4-4--4-4-4--------6--6-6----------|

chorus

|--------------------------------------------------------------------
|--------------------------------------------------------------------
|-------------------------------8-8-8-8-8-8-8-8----------------------
|-10-10-10-10-10-10-10-10-10-10-8-8-8-8-8-8-8-8-10-10-10-10-10-10-10-
|-10-10-10-10-10-10-10-10-10-10-6-6-6-6-6-6-6-6-10-10-10-10-10-10-10-
|--8--8--8--8--8--8--8--8--8--8------------------8--8--8--8--8--8--8-

 ----------------------------------------|
 ----------------------------------------|
 ----------------------------------------|
 -10-10-10-8-8-8-8-8-8-8-8--8--8--8--8-8-|
 -10-10-10-8-8-8-8-8-8-8-8--8--8--8--8-8-|
 --8--8--8-6-6-6-6-6-6-6-6--6--6--6--6-6-|
comments
print report bad tab
3 comments total.
0 reply
mcl guitar wrote on December 14 2006, 06:30 pm

nice tab :)

0 reply
MiniShrink wrote on April 24 2009, 08:13 pm

Perfect tab. Thanks for posting it.

0 reply
MyNameIsGuitar wrote on August 21 2013, 01:45 pm

It would be nice if people would say that they are writing the tab for a guitar tuned down a half step in stead of EADGBe

I want to post or [tab]
guest
You may want to rate the tab now too:
select rating
Please do not post tabs as comments. Select "correction" instead!