Oops, an error
Loading. Please wait.

Pulling Teeth Tab

version 3
version 3

Whole song

Interactive

3,485 views 3 this week
no commentswrite comment
1 2 3 4 5
accurate
x 4
add to favorites
launch autoscroll
font size
0
reset
how to read this tab
guitar tuner
Autoscroll
slow
fast
+/-
esc
set tempo
stop
Help us to improve Ultimate-Guitar.com Take our survey!
×
Author
+----o------o------o-----o-----o-----o----o-----o-----+
------------------------------------------------------|
Pulling Teeth                                         +
------------------------------------------------------|
+----o------o------o-----o-----o-----o----o-----o-----+

Notes:

Green Day 
Dookie
Track 6
E Flat/ 1/2 Down

If you have any questions or comments, please e-mail me at flame1996@live.com or 
just plainly comment.
Oh and please don't comment anything hateful and against my tabs thanks.

--------------
Intro:
--------------

Eb||----------------||
Bb||----------------||
Gb||-444-4----------||
Db||-444-4----------||
Ab||-222-2----------||
Eb||----------------||

Guitar One:

Eb||--------------|--------------||
Bb||----4-----4---|----4-----4---||
Gb||-44-4-444-4-4-|-44-4-444-4-4-||
Db||-44-4-444-4-4-|-44-4-444-4-4-||
Ab||-22-2-222-2-2-|-00-0-000-0-0-||
Eb||--------------|--------------||

Guitar Two:

Eb||----------||
Bb||----------||
Gb||-9-8~~~~~-||
Db||-x-x------||
Ab||-7-6~~~~~-||
Eb||----------||

---------------
Verse:
---------------

I'm all busted up, broken bones and nasty cuts.

Eb||---0-------0000-000-|---0----------------||
Bb||-0-0-000-2-2222-222-|-0-0-000-4-4444-444-||
Gb||-1-1-111-2-2222-222-|-1-1-111-4-4444-444-||
Db||-2-2-222-2-2222-222-|-2-2-222-4-4444-444-||
Ab||-2-2-222-0-0000-000-|-2-2-222-2-2222-222-||
Eb||-0-0-000------------|-0-0-000------------||

Accidents will happen, but this time I can't get up.

Eb||---0----------------|-0-00-------0--------||
Bb||-0-0-000-2-2222-222-|-0-00-444-0-0000-000-||
Gb||-1-1-111-2-2222-222-|-1-11-444-1-1111-111-||
Db||-2-2-222-2-2222-222-|-2-22-444-2-2222-222-||
Ab||-2-2-222-0-0000-000-|-2-22-222-2-2222-222-||
Eb||-0-0-000------------|-0-00-----0-0000-000-||

---------------
Chorus:
---------------

Is she ultra vilont is she disturbed

Eb||----------------|----------------||
Bb||----5-------5---|----5-------5---||
Gb||-66-6-6--66-6-6-|-66-6-6--66-6-6-||
Db||-66-6-6--66-6-6-|-66-6-6--66-6-6-||
Ab||-44-4-4--44-4-4-|-44-4-4--44-4-4-||
Eb||----------------|----------------||

I better tell her that I love her.

Eb||---0-----0----------||
Bb||-0-0-000-0-0000-000-||
Gb||-1-1-111-1-1111-111-||
Db||-2-2-222-2-2222-222-||
Ab||-2-2-222-2-2222-222-||
Eb||-0-0-000-0-0000-000-||

Before she does it all over again

Eb||----------------|----------------||
Bb||----5-------5---|----5-------5---||
Gb||-66-6-6--66-6-6-|-66-6-6--66-6-6-||
Db||-66-6-6--66-6-6-|-66-6-6--66-6-6-||
Ab||-44-4-4--44-4-4-|-44-4-4--44-4-4-||
Eb||----------------|----------------||

Oh god she's killing me!

Eb||----------------|-------||
Bb||----4-------4---|-------||
Gb||-44-4-4--44-4-4-|-44444-||
Db||-44-4-4--44-4-4-|-44444-||
Ab||-22-2-2--22-2-2-|-22222-||
Eb||----------------|-------||

------------
SOLO:
------------

Guitar One:

Eb||-------|-0-0-0-0--0-0000-000---0-0-|-0-0-0-0----------------||
Bb||-------|-2-0-0-0--2-2222-000-0-0-0-|-2-0-0-0--44-55-77-5-44-||
Gb||-------|-----1----2-2222-222-2-1---|-----1----44-44-44-4-44-||
Db||-------|---------------------------|------------------------||
Ab||-------|---------------------------|------------------------||
Eb||-12\---|---------------------------|------------------------||

Eb||-000-00-00-00-00--00-00-00-00-000-|-00-00-00-00--0-------*12-||
Bb||-555-99-10-99-10--12-12-10-10-999-|-10-99-77-77--5--*12------||
Gb||----------------------------------|--------------------------||
Db||----------------------------------|--------------------------||
Ab||----------------------------------|--------------------------||
Eb||----------------------------------|--------------------------||

Guitar Two:

Eb||---0-------0000-000-|---0----------------||
Bb||-0-0-000-2-2222-222-|-0-0-000-4-4444-444-||
Gb||-1-1-111-2-2222-222-|-1-1-111-4-4444-444-||
Db||-2-2-222-2-2222-222-|-2-2-222-4-4444-444-||
Ab||-2-2-222-0-0000-000-|-2-2-222-2-2222-222-||
Eb||-0-0-000------------|-0-0-000------------||

Eb||---0----------------|-0-00-------0--------||
Bb||-0-0-000-2-2222-222-|-0-00-444-0-0000-000-||
Gb||-1-1-111-2-2222-222-|-1-11-444-1-1111-111-||
Db||-2-2-222-2-2222-222-|-2-22-444-2-2222-222-||
Ab||-2-2-222-0-0000-000-|-2-22-222-2-2222-222-||
Eb||-0-0-000------------|-0-00-----0-0000-000-||

------------
Bridge:
------------

Looking out my window for someone that's passing by,
                                x2
Eb||--------------|--------------||
Bb||----4-----4---|----4-----4---||
Gb||-44-4-444-4-4-|-44-4-444-4-4-||
Db||-44-4-444-4-4-|-44-4-444-4-4-||
Ab||-22-2-222-2-2-|-00-0-000-0-0-||
Eb||--------------|--------------||

No one knows I'm locked up here all I do is cry....
Eb||--------------|--------------||
Bb||----4-----4---|----4-----4---||
Gb||-44-4-444-4-4-|-44-4-444-4-4-||
Db||-44-4-444-4-4-|-44-4-444-4-4-||
Ab||-22-2-222-2-2-|-00-0-000-0-0-||
Eb||--------------|--------------||

Eb||----------------|-------||
Bb||----4-------4---|-------||
Gb||-44-4-4--44-4-4-|-44444-||
Db||-44-4-4--44-4-4-|-44444-||
Ab||-22-2-2--22-2-2-|-22222-||
Eb||----------------|-------||

------------
Outro:
------------

For now I'll lie around, hell that's all I can really do.

Eb||---0-------0000-000-|---0----------------||
Bb||-0-0-000-2-2222-222-|-0-0-000-4-4444-444-||
Gb||-1-1-111-2-2222-222-|-1-1-111-4-4444-444-||
Db||-2-2-222-2-2222-222-|-2-2-222-4-4444-444-||
Ab||-2-2-222-0-0000-000-|-2-2-222-2-2222-222-||
Eb||-0-0-000------------|-0-0-000------------||

She takes good care of me

Eb||---0-------0000-000-||
Bb||-0-0-000-2-2222-222-||
Gb||-1-1-111-2-2222-222-||
Db||-2-2-222-2-2222-222-||
Ab||-2-2-222-0-0000-000-||
Eb||-0-0-000------------||

Just keep saying my love is true

Eb||-0----------|-0~~~~~~~~~~~~~-||
Bb||-0--4--2--4-|-0~~~~~~~~~~~~~-||
Gb||-1--4--2--4-|-1~~~~~~~~~~~~~-||
Db||-2--4--2--4-|-2~~~~~~~~~~~~~-||
Ab||-2--2--0--2-|-2~~~~~~~~~~~~~-||
Eb||-0----------|-0~~~~~~~~~~~~~-||

-----------------
Lyrics:
-----------------

(Verse:)

I'm all busted up, broken bones and nasty cuts,
And accidents will happen, but this time I can't get up.
She comes to check on me, making sure I'm on my knees,
After all she's the one, who put me in this state.

(Chorus:)

Is she ultra violent is she disturbed?
I better tell her I love her.
Before she does it all over again,
Oh god she's killing me.

(Post Chorus:)

For now I'll lie around, hell that's all I can really do,
She takes good care of me, just keep saying my love is true.

(Chorus:)

Is she ultra violent is she disturbed?
I better tell her I love her.
Before she does it all over again,
Oh god she's killing me.

(Bridge:)

Looking out my window for someone that's passing by,
No one knows I'm locked in here, all I do is cry.

(Outro:)

For now I'll ly around, hell that's all I can really do,
She takes good care of me, just keep saying my love is true..


---------------------------------

Thanks for reading! Rate Please!
Suggest correction
What's this?
You can suggest a correction to this tab. Community and Mods will review your correction and vote to approve or reject it.
comments
print report bad tab
guest
You may want to rate the tab now too:
select rating
Please do not post tabs as comments. Select "correction" instead!