Oops, an error
Loading. Please wait.

Redundant Tab

version 1
version 1

Whole song

Interactive

36,646 views 27 this week
11 commentsread comments
1 2 3 4 5
accurate
x 19
add to favorites
launch autoscroll
font size
0
reset
how to read this tab
guitar tuner
Tab Pro tools
  • play this tab
  • loop segment
  • change instrument
  • show fretboard
  • metronome
×
Best way to learn
"Redundant"
Autoscroll
slow
fast
+/-
esc
set tempo
stop
Contributor
Artist: Green Day
Track: "Redundant"
Album: International superhits
Tabbed by Mark Brown

Intro 
e--------------------------------------------------|
B------2-----------2----------2--------------------|
G--------2-----------2----------2------------------|
D----------2-----------2----------2---44444444-----|
A------------0----------0----------0--44444444-----|
E--5------------4----------2----------22222222-----|

Pre Verse
e---------------------------------------------------------|
B---------------------------------------------------------|
G----------77777777---------------9--9--------------------|
D--777777777777777777777777777----9--9--------------------|
A--777777775555555577777777777----7--7--------------------|
E--55555555--------55555555555----------------------------|


Verse
e-------------------------------------------|
B-------------------------------------------|
G----------777777777-------7----------------|
D--77777777777777777777777-7-77777777-------|
A--77777777555555555777777-5-77777777-------|
E--55555555---------555555---55555555-------|


e--------------------------------------|
B--------------------------------------|
G---------77777777---------------------|
D-777777777777777799999999999--5--5----|
A-777777775555555599999999999--5--5----|
E-55555555--------77777777777--3--3----|


e-------------------------------------------|
B-------------------------------------------|
G----------777777777-------7----------------|
D--77777777777777777777777-7-77777777-------|
A--77777777555555555777777-5-77777777-------|
E--55555555---------555555---55555555-------|

Pre Chorus
e---------------------------------------|
B---------------------------------------|
G---------77777777----------------------|
D-77777777777777779999999999999999------|
A-77777777555555559999999999999999------|
E-55555555--------7777777777777777------|

Chorus
e--------------------------------------------------|
B------2-----------2----------2--------------------|
G--------2-----------2----------2------------------|
D----------2-----------2----------2---44444444-----|
A------------0----------0----------0--44444444-----|
E--5------------4----------2----------22222222-----|


e---------------------------------------------------------|
B---------------------------------------------------------|
G----------77777777---------------9--9--------------------|
D--777777777777777777777777777----9--9--------------------|
A--777777775555555577777777777----7--7--------------------|
E--55555555--------55555555555----------------------------|


Verse 2
e-------------------------------------------|
B-------------------------------------------|
G----------777777777-------7----------------|
D--77777777777777777777777-7-77777777-------|
A--77777777555555555777777-5-77777777-------|
E--55555555---------555555---55555555-------|


e--------------------------------------|
B--------------------------------------|
G---------77777777---------------------|
D-777777777777777799999999999--5--5----|
A-777777775555555599999999999--5--5----|
E-55555555--------77777777777--3--3----|

e-------------------------------------------|
B-------------------------------------------|
G----------777777777-------7----------------|
D--77777777777777777777777-7-77777777-------|
A--77777777555555555777777-5-77777777-------|
E--55555555---------555555---55555555-------|

Pre Chorus 
e---------------------------------------|
B---------------------------------------|
G---------77777777----------------------|
D-77777777777777779999999999999999------|
A-77777777555555559999999999999999------|
E-55555555--------7777777777777777------|

Chorus
e--------------------------------------------------|
B------2-----------2----------2--------------------|
G--------2-----------2----------2------------------|
D----------2-----------2----------2---44444444-----|
A------------0----------0----------0--44444444-----|
E--5------------4----------2----------22222222-----|


e---------------------------------------------------------|
B---------------------------------------------------------|
G----------77777777---------------9--9--------------------|
D--777777777777777777777777777----9--9--------------------|
A--777777775555555577777777777----7--7--------------------|
E--55555555--------55555555555----------------------------|


Solo  (after the second chorus there is a kinda solo, this sounds not too bad
       to myself but you don't have to play it.  It sounds as if it is based 
       around the A chord.)
Played 2x  
e----------------------0-----------------------------------|
B-------2------------2---2-------------2----2-------2------|
G-----2--2----------2-------2--------2---2--2------2---2---|
D---2------2------------------2----2--------2----2-------2-|
A-0-----------0--4---------------2-------------2----------2|
E----------------------------------------------------------|


e----------------------2-----------------------------------|
B-------2------------2---2----------2-----------2----2-2---|
G-----2---2--------2-------2------2---2-------2---2--2-2---|
D---2-------2-------------------2-------2---2--------2-2---|
A------------0----------------2-----------2----------------|
E-0-------------4------------------------------------------|


Chorus
e--------------------------------------------------|
B------2-----------2----------2--------------------|
G--------2-----------2----------2------------------|
D----------2-----------2----------2---44444444-----|
A------------0----------0----------0--44444444-----|
E--5------------4----------2----------22222222-----|

e---------------------------------------|
B---------------------------------------|
G----------77777777---------------------|
D--777777777777777777777777777777777----|
A--777777775555555577777777777777777----|
E--55555555--------55555555555555555----|

e--------------------------------------------------|
B------2-----------2----------2--------------------|
G--------2-----------2----------2------------------|
D----------2-----------2----------2---44444444-----|
A------------0----------0----------0--44444444-----|
E--5------------4----------2----------22222222-----|

e---------------------------------------|
B---------------------------------------|
G----------77777777---------------------|
D--777777777777777777777777777777777----|
A--777777775555555577777777777777777----|
E--55555555--------55555555555555555----|

Outro
e-----------------------------------------------|
B-----2-----------2-----------2-----------------|
G-------2-----------2-----------2---------------|
D---------2-----------2-----------2-------------|
A-----------0-----------0-----------0-----------|
E--5-----------4------------2----------0~-------|
comments
print report bad tab
11 comments total. Showing first comments.
0 reply
Stealth wrote on February 21 2002, 12:00 am

gj mark ur good at tabbing =)

0 reply
faster wrote on March 11 2002, 12:00 am

nice one mark :)

0 reply
Nat13 wrote on April 5 2002, 12:00 am

Nice tab, the best I've seen of Redundant

I want to post or [tab]
guest
You may want to rate the tab now too:
select rating
Please do not post tabs as comments. Select "correction" instead!