Oops, an error
Loading. Please wait.

Redundant Bass Tab

version 2
version 2

Whole song

Interactive

2,727 views 3 this week
1 commentread comment
1 2 3 4 5
accurate
x 5
add to favorites
launch autoscroll
font size
0
reset
guitar tuner
Autoscroll
slow
fast
+/-
esc
set tempo
stop
Help us to improve Ultimate-Guitar.com Take our survey!
×
Author
Difficulty
intermediate

----------------------------------------------------------------------------
			    Redundant - Green Day
----------------------------------------------------------------------------

Tabbed By : Racahel Brooks
e-mail: Fender_5678@hotmail.com 

Tuning: Standard


  Intro:
G|-------------------------------------------------------------------------|
D|-------------------------------------------------------------------------|
A|-------------------------------------------------------------------------|
E|--5-7-5-4-5-4-5-4-2-4-3-5-3-0-3-2-2-2-2----------------------------------|

G|-------------------------------------------------------------------------|
D|--4-2-0-------------4---2-0-0-0-0-0---0-2-------------------------2-2----|
A|--------4-2-2-2-2-2---2-------------2-----0-0-0-0-5-0-0-4-0-0-2-0--------|
E|-------------------------------------------------------------------------|


  Verse: 
G|-------------------------------------------------------------------------|
D|-------------------------------------------------------------------------|
A|------------------5-5-5-5-5-5-5-5--------------5-------------------------|
E|--5-5-5-5-5-5-5-5-----------------5-5-5-5-5-5-----5-5-5-5-5-5-5-5--------|

G|-------------------------------------------------------------------------|
D|--------------------------------------------------------5-5--------------|
A|------------------5-5-5-5-5-5-5-5--7-7--7-7-7--7-7-7--7------------------|
E|--5-5-5-5-5-5-5-5--------------------------------------------------------|
  
G|-------------------------------------------------------------------------|
D|-------------------------------------------------------------------------|
A|------------------5-5-5-5-5-5-5-5--------------5-------------------------|
E|--5-5-5-5-5-5-5-5-----------------5-5-5-5-5-5-----5-5-5-5-5-5-5-5--------|

G|-------------------------------------------------------------------------|
D|-------------------------------------------------------------------------|
A|------------------5-5-5-5-5-5-5-5--7-7--7-7-7--7-7-7--7-7-7-7-7----------|
E|--5-5-5-5-5-5-5-5--------------------------------------------------------|

Intro:
G|-------------------------------------------------------------------------|
D|-------------------------------------------------------------------------|
A|-------------------------------------------------------------------------|
E|--5-7-5-4-5-4-5-4-2-4-3-5-3-0-3-2-2-2-2----------------------------------|



G|-------------------------------------------------------------------------|
D|--4-2-0-------------4---2-0-0-0-0-0---0-2-------------------------2-2----|
A|--------4-2-2-2-2-2---2-------------2-----0-0-0-0-5-0-0-4-0-0-2-0--------|
E|-------------------------------------------------------------------------|


Verse:
G|-------------------------------------------------------------------------|
D|-------------------------------------------------------------------------|
A|------------------5-5-5-5-5-5-5-5--------------5-------------------------|
E|--5-5-5-5-5-5-5-5-----------------5-5-5-5-5-5-----5-5-5-5-5-5-5-5--------|



G|-------------------------------------------------------------------------|
D|--------------------------------------------------------5-5--------------|
A|------------------5-5-5-5-5-5-5-5--7-7--7-7-7--7-7-7--7------------------|
E|--5-5-5-5-5-5-5-5--------------------------------------------------------|
  


G|-------------------------------------------------------------------------|
D|-------------------------------------------------------------------------|
A|------------------5-5-5-5-5-5-5-5--------------5-------------------------|
E|--5-5-5-5-5-5-5-5-----------------5-5-5-5-5-5-----5-5-5-5-5-5-5-5--------|


G|-------------------------------------------------------------------------|
D|-------------------------------------------------------------------------|
A|------------------5-5-5-5-5-5-5-5--7-7--7-7-7--7-7-7--7-7-7-7-7----------|
E|--5-5-5-5-5-5-5-5-------------------------------------------------------| 


Intro:
G|-------------------------------------------------------------------------|
D|-------------------------------------------------------------------------|
A|-------------------------------------------------------------------------|
E|--5-7-5-4-5-4-5-4-2-4-3-5-3-0-3-2-2-2-2----------------------------------|



G|-------------------------------------------------------------------------|
D|--4-2-0-------------4---2-0-0-0-0-0---0-2-------------------------2-2----|
A|--------4-2-2-2-2-2---2-------------2-----0-0-0-0-5-0-0-4-0-0-2-0--------|
E|-------------------------------------------------------------------------|


Brigde:
G|-------------------------------------------------------------------------|
D|-------------------------------------------------------------------------|
A|------------------5-5-5-5-5-5-5-5--------------5-------------------------|
E|--5-5-5-5-5-5-5-5-----------------5-5-5-5-5-5-----5-5-5-5-5-5-5-4--------|



G|-------------------------------------------------------------------------|
D|---------------------------------------------------------------7-7-------|
A|-------------------0-2-2-2-2-2-2-2-0-------------------------------------|
E|--2-2-2-2-2-2-2----------------------0-0-0-0-2-0-0-4-0-0-5-0-------------|



G|-------------------------------------------------------------------------|
D|-------------------------------------------------------------------------|
A|------------------5-5-5-5-5-5-5-5----------------------------------------|
E|--5-5-5-5-5-5-5-5-----------------5-5-5-5-5-5-5-5---5-5-5-5-5-5-5-4------|



G|-------------------------------------------------------------------------|
D|-------------------------------------------------------------------------|
A|-------------------0-2-2-2-2-2-2-2-0-------------------------------------|
E|--2-2-2-2-2-2-2----------------------0-0-0-0-2-0-0-4-0-0-5-0-0-0-0-0-0---|



G|-------------------------------------------------------------------------|
D|-------------------------------------------------------------------------|
A|-------------------------------------------------------------------------|
E|--5-7-5-4-5-4-5-4-2-4-3-5-3-0-3-2-2-2-2----------------------------------|



G|-------------------------------------------------------------------------|
D|--4-2-0-------------4---2-0-0-0-0-0---0-2--------------------------------|
A|--------4-2-2-2-2-2---2-------------2-----0-0-0-0-5-0-0-4-0-0-0-0-0-0-0--|
E|-------------------------------------------------------------------------|



G|-------------------------------------------------------------------------|
D|-------------------------------------------------------------------------|
A|-------------------------------------------------------------------------|
E|--5-7-5-4-5-4-5-4-2-4-3-5-3-0-3-2-2-2-2----------------------------------|



G|-------------------------------------------------------------------------|
D|--4-2-0-------------4---2-0-0-0-0-0---0-2--------------------------------|
A|--------4-2-2-2-2-2---2-------------2-----0-0-0-0-5-0-0-4-0-0-0-0-0-0-0--|
E|-------------------------------------------------------------------------|



G|-------------------------------------------------------------------------|
D|-------------------------------------------------------------------------|
A|-------------------------------------------------------------------------|
E|--5-7-5-4-5-4-5-4-2-4-3-5-3-0-3-2-2-2-2----------------------3-2-1-------|
Suggest correction
What's this?
You can suggest a correction to this tab. Community and Mods will review your correction and vote to approve or reject it.
comments
print report bad tab
1 comment total.
0 reply
ColdCorpses 13 wrote on April 10 2016, 05:42 pm

This tab isn't accurate. Majority of the fills is missing. The version 1 is definitely more accurate than this one.

guest
You may want to rate the tab now too:
select rating
Please do not post tabs as comments. Select "correction" instead!