Oops, an error
Loading. Please wait.

Redundant Tab

version 3
version 3

Whole song

Interactive

61,881 views 120 this week
14 commentsread comments
1 2 3 4 5
x 81
add to favorites
launch autoscroll
font size
0
reset
how to read this tab
guitar tuner
×
Best way to learn
"Redundant"
Autoscroll
slow
fast
+/-
esc
set tempo
stop
[Intro/chorus]
e|--------------------------------------------------------------------|
B|----2--------2--------2---------------------------------------------|
G|------2--------2--------2-----------4444444477777777------------9-9-|
D|-----------------------------444444444444444777777777777777777779-9-|
A|-----------------------------444444422222222555555557777777777777-7-|
E|-5-----4/54-----3/43-----3p022222222----------------555555555555----|

[Verse]
e|----------------------------------------------------------------|
B|----------------------------------------------------------------|
G|--------77777777------7-----------------77777777----------------|
D|77777777777777777777777-7777777777777777777777772222222222225-5-|
A|77777777555555557777775-7777777777777777555555552222222222225-5-|
E|55555555--------555555--5555555555555555--------0000000000003-3-|

e|-----------------------------------------------------------------|
B|-----------------------------------------------------------------|
G|--------77777777------7-----------------777777779999999999999999-|
D|77777777777777777777777-7777777777777777777777779999999999999999-|
A|77777777555555557777775-7777777777777777555555557777777777777777-|
E|55555555--------555555--5555555555555555-------------------------|

[Instrumental Solo]
e|----------------------------------------------------------------|
B|----------------------------------------------------------------|
G|--------77777777------7-----------------44444444----------------|
D|77777777777777777777777-7777777744444444444444442222222222225-5-|
A|77777777555555557777775-7777777744444444222222222222222222225-5-|
E|55555555--------555555--5555555522222222--------0000000000003-3-|

e|-----------------------------------------------------------------|
B|-----------------------------------------------------------------|
G|--------77777777------------------------44444444-----------------|
D|7777777777777777777777757777777744444444444444442222222222222222-|
A|7777777755555555777777757777777744444444222222222222222222222222-|
E|55555555--------555555535555555522222222--------0000000000000000-|

[Bridge]
e|---------------------------------------------------------------------|
B|----2--------2--------2----------------------------------------------|
G|------2--------2--------2-----------4444444477777777-----------------|
D|-7-------6--------5--------4-444444444444444777777777777777777777777-|
A|-7-------6--------5--------4-444444422222222555555557777777777777777-|
E|-5-------4--------3--------2-2222222----------------5555555555555555-|

[Outro]
e|-------------------------------|
B|----2--------2--------2--------|
G|------2--------2--------2------|
D|-------------------------------|
A|-------------------------------|
E|-5-----4/54-----3/43-----3p02v-|


Playing Order:
[Intro/chorus]
[Verse]
[Intro/chorus]
[Verse]
[Intro/chorus]
[Instrumental solo]
[Bridge] 2x
[Outro]

************************************

p   pull-off
/   slide/hammer-on(whichever you prefer)
v   vibrato

************************************
Suggest correction
comments
print report bad tab
14 comments total. Showing first comments.
0 reply
asthenia_rules 10 Aug 29, 2005 08:00 PM

This tab's good, but it's like you're trying to make it difficult to read and play. Like, in the intro, you can just play open a, not 5 on E. It's the same note.

0 reply
legend and a1/2 10 Sep 30, 2005 04:13 PM

dude awesome tab but (even though this is hard) to make the high notes in the intro ring out hold down the frets, this takes some practice but when uve got it down the tab sounds perfect. tons of props man

0 reply
jjrawson 20 Oct 03, 2005 09:06 AM

nice one mate well done

guest
You may want to rate the tab now too:
select rating
Wanna post a correction for this tab? Suggest correction