Oops, an error
Loading. Please wait.

Reject Tab

version 2
version 2

Whole song

Interactive

296 views 1 this week
no commentswrite comment
1 2 3 4 5
please rate
add to favorites
launch autoscroll
font size
0
reset
how to read this tab
guitar tuner
Autoscroll
slow
fast
+/-
esc
set tempo
stop
Help us to improve Ultimate-Guitar.com Take our survey!
×
Author
Difficulty
novice
Green Day
Reject
From the album Nimrod (1997)
Standard Tuning

Verse
e----------------------------------------------------------------|
B----------------------------------------------------------------|
G----4--4--4-4-4-4--4-4-4--4-4-4---------------------------------|
D----4--4--4-4-4-4--4-4-4--4-4-4--6--6--6-6-6-6--6-6-6--6-6-6----|
A----2--2--2-2-2-2--2-2-2--2-2-2--6--6--6-6-6-6--6-6-6--6-6-6----|
E---------------------------------4--4--4-4-4-4--4-4-4--4-4-4----|

e----------------------------------------------------------------|
B----------------------------------------------------------------|
G----6--6--6-6-6-6--6-6-6--6-6-6---------------------------------|   x2
D----6--6--6-6-6-6--6-6-6--6-6-6--4--4--4-4-4-4--4-4-4--4-4-4----|
A----4--4--4-4-4-4--4-4-4--4-4-4--4--4--4-4-4-4--4-4-4--4-4-4----|
E---------------------------------2--2--2-2-2-2--2-2-2--2-2-2----|

Chorus
e-----------------------------------------------------------------|
B-----------------------------------------------------------------|
G----------------------------------4--4--4-4-4-4--4-4-4--4-4-4----|   x2
D----2--2--2-2-2--5--5-5-5--5-5-5--4--4--4-4-4-4--4-4-4--4-4-4----|
A----2--2--2-2-2--5--5-5-5--5-5-5--2--2--2-2-2-2--2-2-2--2-2-2----|
E----0--0--0-0-0--3--3-3-3--3-3-3---------------------------------|

e-----------------------------------------------------------------|
B-----------------------------------------------------------------|
G-----------------4--4-4-4--4-4-4---------------------------------|    x1
D----2--2--x-x-x--4--4-4-4--4-4-4--2--2--x-x-x--6--6-6-6--6-6-6---|
A----2--2--x-x-x--2--2-2-2--2-2-2--2--2--x-x-x--6--6-6-6--6-6-6---|
E----0--0--x-x-x-------------------0--0--x-x-x--4--4-4-4--4-4-4---|

e--------------------------------------------------------------------|
B--------------------------------------------------------------------|
G--------------------------------------------------------------------|   x1
D----5--5--5-5-5-5--5-5-5--5-5-5--4-4-4-4-4-4-4-4-4-4-4-4-4-4-4-4----|
A----5--5--5-5-5-5--5-5-5--5-5-5--4-4-4-4-4-4-4-4-4-4-4-4-4-4-4-4----|
E----3--3--3-3-3-3--3-3-3--3-3-3--2-2-2-2-2-2-2-2-2-2-2-2-2-2-2-2----|

e----------------------------------|
B----------------------------------|
G---------------9------------------|  x2
D----9-9-9-9-9--9--9-9-9-9-9--7----|
A----9-9-9-9-9--7--9-9-9-9-9--7----|
E----7-7-7-7-7-----7-7-7-7-7--5----|

Chorus 2
e-----------------------------------------------------------------|
B-----------------------------------------------------------------|
G----------------------------------4--4--4-4-4-4--4-4-4--4-4-4----|   x2
D----2--2--2-2-2--5--5-5-5--5-5-5--4--4--4-4-4-4--4-4-4--4-4-4----|
A----2--2--2-2-2--5--5-5-5--5-5-5--2--2--2-2-2-2--2-2-2--2-2-2----|
E----0--0--0-0-0--3--3-3-3--3-3-3---------------------------------|

e-----------------------------------------------------------------|
B-----------------------------------------------------------------|
G-----------------4--4-4-4--4-4-4---------------------------------|  x1
D----2--2--x-x-x--4--4-4-4--4-4-4--2--2--x-x-x--6--6-6-6--6-6-6---|
A----2--2--x-x-x--2--2-2-2--2-2-2--2--2--x-x-x--6--6-6-6--6-6-6---|
E----0--0--x-x-x-------------------0--0--x-x-x--4--4-4-4--4-4-4---|

e--------------------------------------------------------------------|
B--------------------------------------------------------------------|
G--------------------------------------------------------------------|   x1
D----5--5--5-5-5-5--5-5-5--5-5-5--4-4-4-4-4-4-4-4-4-4-4-4-4-4-4-4----|
A----5--5--5-5-5-5--5-5-5--5-5-5--4-4-4-4-4-4-4-4-4-4-4-4-4-4-4-4----|
E----3--3--3-3-3-3--3-3-3--3-3-3--2-2-2-2-2-2-2-2-2-2-2-2-2-2-2-2----|

e----------------------------------|
B----------------------------------|
G---------------9------------------|  x4
D----9-9-9-9-9--9--9-9-9-9-9--7----|
A----9-9-9-9-9--7--9-9-9-9-9--7----|
E----7-7-7-7-7-----7-7-7-7-7--5----|

Bridge
e--------------------------|
B--------------------------|
G--------------4-4--4-4----|   x2
D----2-2--5-5--4-4--4-4----|
A----2-2--5-5--2-2--2-2----|
E----0-0--3-3--------------|

e-------------------------------------------------------------------------|
B-------------------------------------------------------------------------|
G--------------------------------------4-4-4-4-4-4-4-4-4-4-4-4-4-4-4-4----|
D----2-2-2-2-2-2-2-2--5-5-5-5-5-5-5-5--4-4-4-4-4-4-4-4-4-4-4-4-4-4-4-4----|
A----2-2-2-2-2-2-2-2--5-5-5-5-5-5-5-5--2-2-2-2-2-2-2-2-2-2-2-2-2-2-2-2----|
E----0-0-0-0-0-0-0-0--3-3-3-3-3-3-3-3-------------------------------------|
pm       . . . . . .  . . . . . . . .  . . . . . . . . . .

e--------------------------------------------------------------------|
B--------------------------------------------------------------------|
G--------------------------------------------------------------------|   x1
D----5--5--5-5-5-5--5-5-5--5-5-5--4-4-4-4-4-4-4-4-4-4-4-4-4-4-4-4----|
A----5--5--5-5-5-5--5-5-5--5-5-5--4-4-4-4-4-4-4-4-4-4-4-4-4-4-4-4----|
E----3--3--3-3-3-3--3-3-3--3-3-3--2-2-2-2-2-2-2-2-2-2-2-2-2-2-2-2----|

e---------------------------------------|
B---------------------------------------|
G---------------------------------------|  x3
D----4-4-4-4-4-4-4-4-4-4-4-4-4-4-4-4----|
A----4-4-4-4-4-4-4-4-4-4-4-4-4-4-4-4----|
E----2-2-2-2-2-2-2-2-2-2-2-2-2-2-2-2----|

Outro
e------------------------|
B------------------------|
G----------4--4-4-4-4----|   x1
D----2--5--4--4-4-4-4----|
A----2--5--2--2-2-2-2----|
E----0--3----------------|

Order:
Verse
Chorus 1
Verse
Chorus 2
Bridge
Outro

Thanks for looking!
Suggest correction
What's this?
You can suggest a correction to this tab. Community and Mods will review your correction and vote to approve or reject it.
comments
We did not receive enough feedback on this tab! Please rate:
print report bad tab
1 2 3 4 5
guest
You may want to rate the tab now too:
select rating
Please do not post tabs as comments. Select "correction" instead!