Oops, an error
Loading. Please wait.
We have an official Reject tab made by UG professional guitarists. Check out the tab »
×
598 views 3 this week
no commentswrite comment
1 2 3 4 5
2 more votes to show rating
add to favorites
×
Save as Personal and add changes to this tab that will be seen only by you. Learn more ›
×
You can save this tab as Personal to edit and correct it or add notes. All changes will be seen only by you. Learn more »
launch autoscroll
font size
0
reset
how to read this tab
guitar tuner
edit
Autoscroll
slow
fast
+/-
esc
set tempo
stop
Author
.= Palm Mute
_________________________________________________________________________


EDIT 1 (5/27/13): Changed a minor mistake in the first verse



VERSE x2
"Who the hell are you to tell me, what I am and what's my master..."
e|-----------------|-----------------|-----------------|-----------------|
B|-----------------|-----------------|-----------------|-----------------|
G|-4---4---4-4-4-4-|---4-4---4-4-4---|-----------------|-----------------|
D|-4---4---4-4-4-4-|---4-4---4-4-4---|-6---6---6-6-6-6-|---6-6---6-6-6---|
A|-2---2---2-2-2-2-|---2-2---2-2-2---|-6---6---6-6-6-6-|---6-6---6-6-6---|
E|-----------------|-----------------|-4---4---4-4-4-4-|---4-4---4-4-4---|

e|-----------------|-----------------|-----------------|-----------------|
B|-----------------|-----------------|-----------------|-----------------|
G|-6---6---6-6-6-6-|---6-6---6-6-6---|-----------------|-----------------|
D|-6---6---6-6-6-6-|---6-6---6-6-6---|-4---4---4-4-4-4-|---4-4---4-4-4---|
A|-4---4---4-4-4-4-|---4-4---4-4-4---|-4---4---4-4-4-4-|---4-4---4-4-4---|
E|-----------------|-----------------|-2---2---2-2-2-2-|---2-2---2-2-2---|


CHORUS a x2
e|-----------------|-----------------|-----------------|-----------------|
B|-----------------|-----------------|-----------------|-----------------|
G|-----------------|-----------------|-4---4---4-4-4-4-|---4-4---4-4-4---|
D|-2---2---2-2-2-5-|---5-5---5-5-5---|-4---4---4-4-4-4-|---4-4---4-4-4---|
A|-2---2---2-2-2-5-|---5-5---5-5-5---|-2---2---2-2-2-2-|---2-2---2-2-2---|
E|-0---0---0-0-0-3-|---3-3---3-3-3---|-----------------|-----------------|


CHORUS b x1
"Sucking up your social sect, making you a nervous wreck..."
e|---------x-x-x---|-----------------|---------x-x-x---|-----------------|
B|---------x-x-x---|-----------------|---------x-x-x---|-----------------|
G|---------x-x-x-4-|---4-4---4-4-4---|---------x-x-x---|-----------------|
D|-2-2-2---x-x-x-4-|---4-4---4-4-4---|-2-2-2---x-x-x-6-|---6-6---6-6-6---|
A|-2-2-2---x-x-x-2-|---2-2---2-2-2---|-2-2-2---x-x-x-6-|---6-6---6-6-6---|
E|-0-0-0---x-x-x---|-----------------|-0-0-0---x-x-x-4-|---4-4---4-4-4--|

e|-----------------|-----------------|-----------------|-----------------|
B|-----------------|-----------------|-----------------|-----------------|
G|-----------------|-----------------|-----------------|-----------------|
D|-5---5---5-5-5-5-|---5-5---5-5-5---|-4---4---4-4-4-4-|---4-4---4-4-4---|
A|-5---5---5-5-5-5-|---5-5---5-5-5---|-4---4---4-4-4-4-|---4-4---4-4-4---|
E|-3---3---3-3-3-3-|---3-3---3-3-3---|-2---2---2-2-2-2-|---2-2---2-2-2---|

e|-----------------|-----------------|-----------------|-----------------|
B|-----------------|-----------------|-----------------|-----------------|
G|--------------9--|-----------------|--------------9--|-----------------|
D|-9-9-9-9-9----9--|-9-9-9-9-9-----7-|-9-9-9-9-9----9--|-9-9-9-9-9-----7-|
A|-9-9-9-9-9----7--|-9-9-9-9-9-----7-|-9-9-9-9-9----7--|-9-9-9-9-9-----7-|
E|-7-7-7-7-7-------|-7-7-7-7-7-----5-|-7-7-7-7-7-------|-7-7-7-7-7-----5-|


VERSE x2
"What's the difference between you and me?..."
e|-----------------|-----------------|-----------------|-----------------|
B|-----------------|-----------------|-----------------|-----------------|
G|-4---4---4-4-4-4-|---4-4---4-4-4---|-----------------|-----------------|
D|-4---4---4-4-4-4-|---4-4---4-4-4---|-6---6---6-6-6-6-|---6-6---6-6-6---|
A|-2---2---2-2-2-2-|---2-2---2-2-2---|-6---6---6-6-6-6-|---6-6---6-6-6---|
E|-----------------|-----------------|-4---4---4-4-4-4-|---4-4---4-4-4---|

e|-----------------|-----------------|-----------------|-----------------|
B|-----------------|-----------------|-----------------|-----------------|
G|-6---6---6-6-6-6-|---6-6---6-6-6---|-----------------|-----------------|
D|-6---6---6-6-6-6-|---6-6---6-6-6---|-4---4---4-4-4-4-|---4-4---4-4-4---|
A|-4---4---4-4-4-4-|---4-4---4-4-4---|-4---4---4-4-4-4-|---4-4---4-4-4---|
E|-----------------|-----------------|-2---2---2-2-2-2-|---2-2---2-2-2---|


CHORUS a x2
e|-----------------|-----------------|-----------------|-----------------|
B|-----------------|-----------------|-----------------|-----------------|
G|-----------------|-----------------|-4---4---4-4-4-4-|---4-4---4-4-4---|
D|-2---2---2-2-2-5-|---5-5---5-5-5---|-4---4---4-4-4-4-|---4-4---4-4-4---|
A|-2---2---2-2-2-5-|---5-5---5-5-5---|-2---2---2-2-2-2-|---2-2---2-2-2---|
E|-0---0---0-0-0-3-|---3-3---3-3-3---|-----------------|-----------------|


CHORUS b x1
"Sucking up your social sect, making you a nervous wreck..."
e|---------x-x-x---|-----------------|---------x-x-x---|-----------------|
B|---------x-x-x---|-----------------|---------x-x-x---|-----------------|
G|---------x-x-x-4-|---4-4---4-4-4---|---------x-x-x---|-----------------|
D|-2-2-2---x-x-x-4-|---4-4---4-4-4---|-2-2-2---x-x-x-6-|---6-6---6-6-6---|
A|-2-2-2---x-x-x-2-|---2-2---2-2-2---|-2-2-2---x-x-x-6-|---6-6---6-6-6---|
E|-0-0-0---x-x-x---|-----------------|-0-0-0---x-x-x-4-|---4-4---4-4-4---|

e|-----------------|-----------------|-----------------|-----------------|
B|-----------------|-----------------|-----------------|-----------------|
G|-----------------|-----------------|-----------------|-----------------|
D|-5---5---5-5-5-5-|---5-5---5-5-5---|-4---4---4-4-4-4-|---4-4---4-4-4---|
A|-5---5---5-5-5-5-|---5-5---5-5-5---|-4---4---4-4-4-4-|---4-4---4-4-4---|
E|-3---3---3-3-3-3-|---3-3---3-3-3---|-2---2---2-2-2-2-|---2-2---2-2-2---|


x2
e|-----------------|-----------------|-----------------|-----------------|
B|-----------------|-----------------|-----------------|-----------------|
G|--------------9--|-----------------|--------------9--|-----------------|
D|-9-9-9-9-9----9--|-9-9-9-9-9-----7-|-9-9-9-9-9----9--|-9-9-9-9-9-----7-|
A|-9-9-9-9-9----7--|-9-9-9-9-9-----7-|-9-9-9-9-9----7--|-9-9-9-9-9-----7-|
E|-7-7-7-7-7-------|-7-7-7-7-7-----5-|-7-7-7-7-7-------|-7-7-7-7-7-----5-|



BRIDGE x2
"So when the smoke clears here I am, your reject all-american..."
e|-----------------|-----------------|-----------------|-----------------|
B|-----------------|-----------------|-----------------|-----------------|
G|-----------------|-----------------|-4-4-------------|-4-4-------------|
D|-2-2-------------|-5-5-------------|-4-4-------------|-4-4-------------|
A|-2-2-------------|-5-5-------------|-2-2-------------|-2-2-------------|
E|-0-0-------------|-3-3-------------|-----------------|-----------------|


CHORUS c x1
"Falling from grace right on my face, "
e|-----------------|-----------------|-----------------|-----------------|
B|-----------------|-----------------|-----------------|-----------------|
G|-----------------|-----------------|-4-4-4-4-4-4-4-4-|-4-4-4-4-4-4-4-4-|
D|-2-2-2-2-2-2-2-2-|-5-5-5-5-5-5-5-5-|-4-4-4-4-4-4-4-4-|-4-4-4-4-4-4-4-4-|
A|-2-2-2-2-2-2-2-2-|-5-5-5-5-5-5-5-5-|-2-2-2-2-2-2-2-2-|-2-2-2-2-2-2-2-2-|
E|-0-0-0-0-0-0-0-0-|-3-3-3-3-3-3-3-3-|-----------------|-----------------|
   ...................................................

e|-----------------|-----------------|-----------------|-----------------|
B|-----------------|-----------------|-----------------|-----------------|
G|-----------------|-----------------|-----------------|-----------------|
D|-5---5---5-5-5-5-|---5-5---5-5-5---|-4---4---4-4-4-4-|---4-4---4-4-4---|
A|-5---5---5-5-5-5-|---5-5---5-5-5---|-4---4---4-4-4-4-|---4-4---4-4-4---|
E|-3---3---3-3-3-3-|---3-3---3-3-3---|-2---2---2-2-2-2-|---2-2---2-2-2---|


OUTRO x1
e|-----------------|-----------------|-----------------|-----------------|
B|-----------------|-----------------|-----------------|-----------------|
G|-----------------|-----------------|-----------------|-----------------|
D|-4---4---4-4-4-4-|---4-4---4-4-4---|-4-4-4-4-4-4-4-4-|-4-4-4-4-4-4-4-4-|
A|-4---4---4-4-4-4-|---4-4---4-4-4---|-4-4-4-4-4-4-4-4-|-4-4-4-4-4-4-4-4-|
E|-2---2---2-2-2-2-|---2-2---2-2-2---|-2-2-2-2-2-2-2-2-|-2-2-2-2-2-2-2-2-|

e|-----------------|-----------------|-----------------|-----------------|
B|-----------------|-----------------|-----------------|-----------------|
G|-----------------|-----------------|-------------4---|-4-4-4-4---------|
D|-4-4-4-4-4-4-4-4-|-4-4-4-4-4-4-4-4-|-2-----5-----4---|-4-4-4-4---------|
A|-4-4-4-4-4-4-4-4-|-4-4-4-4-4-4-4-4-|-2-----5-----2---|-2-2-2-2---------|
E|-2-2-2-2-2-2-2-2-|-2-2-2-2-2-2-2-2-|-0-----3---------|-----------------|




That is all. Kind of a long tab, but fun to play.

            
            
Suggest correction
Creating personal tab
Creating personal tab
You can edit any tab online and save it as your Personal.

You can edit, replace or remove any tab part or add personal notes – all changes will be seen only by you.

Personal tabs can be accessed anytime from any device, even offline.
Learn more »
Give kudos to tab author, rate the tab!
1 2 3 4 5
comments
print report bad tab
guest
You may want to rate the tab now too:
select rating
Wanna post a correction for this tab? Suggest correction