Oops, an error
Loading. Please wait.

Restless Heart Syndrome bass

version 2
version 2

Whole song

Interactive

1,237 views 6 this week
1 commentread comment
1 2 3 4 5
x 6
add to favorites
×
Save as Personal and add changes to this tab that will be seen only by you. Learn more ›
×
You can save this tab as Personal to edit and correct it or add notes. All changes will be seen only by you. Learn more »
launch autoscroll
font size
0
reset
guitar tuner
backing track
0:00
0:00
edit
Autoscroll
slow
fast
+/-
esc
set tempo
stop
Author
Difficulty
Green Day-Restless Heart Syndrome

Verse 0:36               
G|----------------------|
D|-5--5-----------------|
A|------8--8-7--7-6-6-5-|
E|----------------------|

Chorus 1
G|----------------------------------------------|
D|----------------------------------------------|
A|----------------------------------------------|
E|-8--8-6--6-5--5-4--4-3--8--8-6--6-5--5-4--4-3-|

G|------------------|
D|------------------|
A|-5555555555555555-|
E|------------------|

Chorus 2
G|---------------------------------------|
D|-55555555-33333333-----------3333------|
A|-------------------7777-3333------5555-|
E|---------------------------------------|

G|------------------------------------|
D|-55555555-33333333-----------3333---|
A|-------------------7777-3333------5-|
E|------------------------------------|

Guitar solo
G|---------------------|
D|---------------------|
A|-----------7777-6665-|
E|-3333-1111-----------|

Chorus 3
G|--------------------------------|
D|----------------------3333------|
A|------------7777-3333------5555-|
E|-33---111-----------------------|

Chorus 4
G|---------------------------------------|
D|-----------------------------3333------|
A|-------------------7777-3333------5555-|
E|-33333333-11111111---------------------|

Outro 
G|--------------------------------|
D|--------------------------------|
A|-----------------6666----66--66-|
E|-3333----3333-------------------|

Play this at the end of the Outro
G|---------------|
D|---------------|
A|---------------|
E|-3--3--3--3--3-|



Verse x4
Chorus 1 x1
Verse x8
Chorus 1 x1
Chorus 2 x1
Solo x4
Chorus 3 x2
Chorus 4 x2
Outro x4

            
            
Suggest correction
Creating personal tab
Creating personal tab
You can edit any tab online and save it as your Personal.

You can edit, replace or remove any tab part or add personal notes – all changes will be seen only by you.

Personal tabs can be accessed anytime from any device, even offline.
Learn more »
comments
print report bad tab
1 comment total.
+2 reply
Mazr3y 199 Jul 13, 2013 01:35 PM

I have a restless heart syndrome for this tab

guest
You may want to rate the tab now too:
select rating
Wanna post a correction for this tab? Suggest correction