Oops, an error
Loading. Please wait.
We have an official Revolution Radio tab made by UG professional guitarists. Check out the tab »
×

Revolution Radio Bass

version 1
version 1

Whole song

  • First version, if you have any suggestions or impr... Show more

Interactive

5,248 views 111 this week
7 commentsread comments
1 2 3 4 5
x 4
add to favorites
launch autoscroll
font size
0
reset
guitar tuner
Autoscroll
slow
fast
+/-
esc
set tempo
stop
Author
Difficulty
novice
About this tab version
First version, if you have any suggestions or improvements please comment them, enjoy. Was this info helpful? Yes No
Tuning: Standard EADG

[Intro]

0:11                                                                        x3
G|---------------------------------------------------------------------------|
D|---------------------------------------------------------------------------|
A|------------8-8--8-8-8-8---------------------------------------------------|
E|--5-5--5-5-----------------------------------------------------------------|

                                                                            x1
G|---------------------------------------------------------------------------|
D|---------------------------------------------------------------------------|
A|------------8--------------------------------------------------------------|
E|--5-5--5-5-----------------------------------------------------------------|


[Verse]

0:21                                                                        x3
G|---------------------------------------------------------------------------|
D|---------------------------------------------------------------------------|
A|-------------------5-5-5-5-5-5-5-------------------------------------------|
E|--5-5-5-5-5-5-5-5----------------------------------------------------------|

                                                                            x1
G|---------------------------------------------------------------------------|
D|---------------------------------------------------------------------------|
A|---------------7-7-7-7-7-7-7-----------------------------------------------|
E|--3-3-3-3-3-3--------------------------------------------------------------|

                                                                            x3
G|---------------------------------------------------------------------------|
D|---------------------------------------------------------------------------|
A|-------------------5-5-5-5-5-5-5-------------------------------------------|
E|--5-5-5-5-5-5-5-5----------------------------------------------------------|

                                                                            x1
G|---------------------------------------------------------------------------|
D|---------------------------------------------------------------------------|
A|---------------7-7-7-7-7-7-7-----------------------------------------------|
E|--3-3-3-3-3-3--------------------------------------------------------------|


[Chorus]

0:46                                                                        x1
G|---------------------------------------------------------------------------|
D|---------------------------------------------------------------------------|
A|---------------------------------------------------------------------------|
E|-5-5-5-5-5-5-5-5-5-5-5-5-5-5-5-5---2-2-2-2-2-2-2-2-2-2-2-2-2-2-2-2---------|

                                                                            x1
G|---------------------------------------------------------------------------|
D|---------------------------------------------------------------------------|
A|-5-5-5-5-5-5---------------------------------------------------------------|
E|---------------3-3-3-3-3-3-------------------------------------------------|
                                                                        
                                                                            x1
G|---------------------------------------------------------------------------|
D|---------------------------------------------------------------------------|
A|---------------------------------------------------------------------------|
E|-5-5-5-5-5-5-5-5-5-5-5-5---3-3---5-5-5-5-5-5-5-5-5-5-5-5-5-5-5-5-----------|

                                                                            x1
G|---------------------------------------------------------------------------|
D|---------------------------------------------------------------------------|
A|-9-9-9-9-9-9-9-9-9-9-9-9-9-9-9-9---5-5-5-5-5-5---8-8-8---------------------|
E|---------------------------------------------------------------------------|

[Verse 2]

1:10                                                                        x3
G|---------------------------------------------------------------------------|
D|---------------------------------------------------------------------------|
A|-------------------5-5-5-5-5-5-5-------------------------------------------|
E|--5-5-5-5-5-5-5-5----------------------------------------------------------|

                                                                            x1
G|---------------------------------------------------------------------------|
D|---------------------------------------------------------------------------|
A|---------------7-7-7-7-7-7-7-----------------------------------------------|
E|--3-3-3-3-3-3--------------------------------------------------------------|

                                                                            x3
G|---------------------------------------------------------------------------|
D|---------------------------------------------------------------------------|
A|-------------------5-5-5-5-5-5-5-------------------------------------------|
E|--5-5-5-5-5-5-5-5----------------------------------------------------------|

                                                                            x1
G|---------------------------------------------------------------------------|
D|---------------------------------------------------------------------------|
A|---------------7-7-7-7-7-7-7-----------------------------------------------|
E|--3-3-3-3-3-3--------------------------------------------------------------|


[Chorus]

1:32                                                                        x1
G|---------------------------------------------------------------------------|
D|---------------------------------------------------------------------------|
A|---------------------------------------------------------------------------|
E|-5-5-5-5-5-5-5-5-5-5-5-5-5-5-5-5---2-2-2-2-2-2-2-2-2-2-2-2-2-2-2-2---------|

                                                                            x1
G|---------------------------------------------------------------------------|
D|---------------------------------------------------------------------------|
A|-5-5-5-5-5-5---------------------------------------------------------------|
E|---------------3-3-3-3-3-3-------------------------------------------------|
                                                                        
                                                                            x1
G|---------------------------------------------------------------------------|
D|---------------------------------------------------------------------------|
A|---------------------------------------------------------------------------|
E|-5-5-5-5-5-5-5-5-5-5-5-5---3-3---5-5-5-5-5-5-5-5-5-5-5-5-5-5-5-5-----------|

                                                                            x1
G|---------------------------------------------------------------------------|
D|---------------------------------------------------------------------------|
A|-9-9-9-9-9-9-9-9-9-9-9-9-9-9-9-9---5-5-5-5-5-5---8-8-8---------------------|
E|---------------------------------------------------------------------------|


[Bass during guitar solo]


2:01                                                                        x1
G|---------------------------------------------------------------------------|
D|---------------------------------------------------------------------------|
A|---------------------------------------------------------------------------|
E|-5-5-5-5-5-5-5-5-5-5-5-5-5-5-5-5---2-2-2-2-2-2-2-2-2-2-2-2-2-2-2-2---------|

                                                                            x1
G|---------------------------------------------------------------------------|
D|---------------------------------------------------------------------------|
A|-5-5-5-5-5-5---------------------------------------------------------------|
E|---------------3-3-3-3-3-3-------------------------------------------------|
                                                                        
                                                                            x1
G|---------------------------------------------------------------------------|
D|---------------------------------------------------------------------------|
A|---------------------------------------------------------------------------|
E|-5-5-5-5-5-5-5-5-5-5-5-5---3-3---5-5-5-5-5-5-5-5-5-5-5-5-5-5-5-5-----------|

                                                                            x1
G|---------------------------------------------------------------------------|
D|---------------------------------------------------------------------------|
A|-9-9-9-9-9-9-9-9-9-9-9-9-9-9-9-9---5-5-5-5-5-5-----------------------------|
E|-------------------------------------------------3-3-3-3-3-3---------------|


[Chorus]

2:28                                                                        x1
G|---------------------------------------------------------------------------|
D|---------------------------------------------------------------------------|
A|---------------------------------------------------------------------------|
E|-5-5-5-5-5-5-5-5-5-5-5-5-5-5-5-5---2-2-2-2-2-2-2-2-2-2-2-2-2-2-2-2---------|

                                                                            x1
G|---------------------------------------------------------------------------|
D|---------------------------------------------------------------------------|
A|-5-5-5-5-5-5---------------------------------------------------------------|
E|---------------3-3-3-3-3-3-------------------------------------------------|
                                                                        
                                                                            x1
G|---------------------------------------------------------------------------|
D|---------------------------------------------------------------------------|
A|---------------------------------------------------------------------------|
E|-5-5-5-5-5-5-5-5-5-5-5-5---3-3---5-5-5-5-5-5-5-5-5-5-5-5-5-5-5-5-----------|

                                                                            x1
G|---------------------------------------------------------------------------|
D|---------------------------------------------------------------------------|
A|-9-9-9-9-9-9-9-9-9-9-9-9-9-9-9-9---5-5-5-5-5-5---8-8-8---------------------|
E|---------------------------------------------------------------------------|


[Outro]

2:46                                                                        x1
G|---------------------------------------------------------------------------|
D|---------------------------------------------------------------------------|
A|-------------------------------------------8-8-8-8-8-----------------------|
E|-5-5-5-5-5-5---1-1-1-1-1-1---5-5-5-5-5-5-----------------------------------|
                                                                            x1
G|---------------------------------------------------------------------------|
D|---------------------------------------------------------------------------|
A|---------------8-8-8-8-8---------------------3-3---------------------------|
E|-5-5-5-5-5-5---------------5-5---1-1---3-3---------5-----------------------|

Just listen to the song and get the speed you should be playing at, and just play the notes that are tabbed,
should sound fine. It's relatively simple in that there no complex things to do it's just simple picking. It's
tabbed for auto scroll mode, so you can stick that on and play through, it's all tabbed in the correct order.
The timings are according to the lyric video(https://www.youtube.com/watch?v=LHPKOy3dtqQ)

************************************

| x   Dead note
| g   Grace note
| (n) Ghost note
| h   Hammer-on
| p   Pull-off
| r   Release
| >   Accented note
| t   Tapping
| b   Bend
| br  Bend release
| pb  Pre-bend
| pbr Pre-bend release
| /   Slide up
| \   Slide down
| ~   Vibrato
| s   Slap
| P   Pop
| PM  Palm mute
| TR  Trill
| N   Tremolo

************************************
Suggest correction
comments
print report bad tab
7 comments total. Showing first comments.
0 reply
tdokis 10 Sep 12, 2016 10:41 PM

What about the little bass solo before the guitar solo?

guest
You may want to rate the tab now too:
select rating
Wanna post a correction for this tab? Suggest correction