Oops, an error
Loading. Please wait.
We have an official Revolution Radio tab made by UG professional guitarists. Check out the tab »
×

Revolution Radio tab

version 1
version 1

Whole song

  • The solo is included in this tab.
  • Full song, includes solo and rhythm and lead parts... Show more
  • First tab seen on the site, accurate as heard by ear.
  • This version is accurate complete has all the lyrics and the full guitar solo.

Interactive

Video

  • How to play Revolution Radio by Green Day on Guitar Easy to Follow.
  • High quality, easy to follow video lesson.
10,270 views 15 this week
no commentswrite comment
1 2 3 4 5
x 11
add to favorites
×
Save as Personal and add changes to this tab that will be seen only by you. Learn more ›
×
You can save this tab as Personal to edit and correct it or add notes. All changes will be seen only by you. Learn more »
launch autoscroll
font size
0
reset
how to read this tab
guitar tuner
edit
Autoscroll
slow
fast
+/-
esc
set tempo
stop
Artist: Green Day
Song: Revolution Radio
Album: Revolution Radio
Tabber's email: winterfitz36@gmail.com

Guitar 1: Standard Tuning (EADGBe) [Lead]
Guitar 2: Standard Tuning (EADGBe) [Rhythm]


[Intro]

Guitar 1
e|-5-5-----5-5-----|-----5---7-5-----|
B|-----5-5-----5-6-|-6-6---6-----6-6-|
G|-----------------|-----------------|     
D|-----------------|-----------------|
A|-----------------|-----------------|
E|-----------------|-----------------|(x4)

(after drum roll)

Guitar 2:
e|--------------------------------------------------|
B|-----Rhythm not represented-----------------------|
G|--------------------------------------------------|
D|--7-----3-----------------------------------------|
A|--7-----3-----------------------------------------|
E|--5-----1-----------------------------------------|

Guitar 1 keeps playing the same thing


[Verse 1]

Both Guitars:
e|---------------------------------------------------------------|
B|-----------------------After last repeat:----------------------|
G|-----------7-----------------------------------9---------------|
D|---7---7---7----x3-----Guitar 1 changes----5---9---------------|
A|---7---7---5-----------after 2nd time------5---7---------------|
E|---5---5-----------------------------------3-------------------|
PM       .   .

Guitar 1 
e|----------------|-----5---7-5-----|
B|------------5-6-|-6-6---6-----6---|
G|----------------|-----------------|
D|----------------|-----------------|
A|----------------|-----------------|
E|----------------|-----------------|

Play verse riffs twice then:


[Pre-Chorus]

Both Guitars:
e|---------------------------------------------------------------|
B|---------------------------------------------------------------|
G|--4---5---7---9---7---5---7---4--------------------------------|
D|--x---x---x---x---x---x---x---x--------------------------------|
A|--2---3---5---7---5---3---5---2--------------------------------|
E|---------------------------------------------------------------|


[Chorus]

Both Guitars:
e|-----------------------------------------------------|
B|-----------------------------------------------------|
G|----------------7---3(10)----------------------------| Notes in parenthesis played on second repeat
D|----7------4----7---3(10)----7---5-6-----------------|
A|----7------4----5---1(8)-----7---5-6---x2------------|
E|----5------2-----------------5---3-4-----------------|

Guitar 1                (Here^)
e|--------5-5-----5-5-----5-5------------------------------------|
B|----5-5-----5-5-----5-5----------------------------------------|
G|---------------------------------------------------------------|
D|---------------------------------------------------------------|
A|---------------------------------------------------------------|
E|---------------------------------------------------------------|


[Post-Chorus]

e|--------------------------------------------------------|
B|--------------------------------------------------------|
G|-----------------5-5------------------------------------| 
D|--7-7--3-3--5-5--5-5------------------------------------|
A|--7-7--3-3--5-5--3-3------------------------------------|
E|--5-5--1-1--3-3-----------------------------------------|(x2)


[Verse 2] (play Verse 1 again)


[Chorus](play chorus again)

Post-Chorus played 4 times. And just play the chorus riff without the guitar 1 bits for the solo. 

Post-chorus played twice before last chorus


[Outro]
(the same as the intro)


************************************

| x    Dead note
| (n)  Ghost note
| PM   Palm Mute

************************************

            
            
Suggest correction
Creating personal tab
Creating personal tab
You can edit any tab online and save it as your Personal.

You can edit, replace or remove any tab part or add personal notes – all changes will be seen only by you.

Personal tabs can be accessed anytime from any device, even offline.
Learn more »
comments
print report bad tab
guest
You may want to rate the tab now too:
select rating
Wanna post a correction for this tab? Suggest correction