Oops, an error
Loading. Please wait.

Revolution Radio Bass Tab

version 2
version 2

Whole song

  • First version, if you have any suggestions or impr... Show more

Interactive

400 views 39 this week
no commentswrite comment
1 2 3 4 5
x 3
add to favorites
launch autoscroll
font size
0
reset
guitar tuner
Autoscroll
slow
fast
+/-
esc
set tempo
stop
Help us to improve Ultimate-Guitar.com Take our survey!
×
Author
Difficulty
novice
Intro:
G|-----------------|-----------------|-----------------|-----------------|
D|-----------------|-----------------|-----------------|-----------------|
A|---------------8-|---8-8---8-8-8---|---------------8-|---8-8---8-8-8---|
E|-5---5---5-5-5---|-----------------|-5---5---5-5-5---|-----------------|

G|-----------------|-----------------|-----------------|-----------------|
D|-----------------|-----------------|-----------------|-----------------|
A|---------------8-|---8-8---8-8-8---|---------------8-|-----------------|
E|-5---5---5-5-5---|-----------------|-5---5---5-5-5---|---------------5-|

Verse:
G|-----------------|-----------------|-----------------|-----------------|
D|-----------------|-----------------|-----------------|-----------------|
A|-----------------|-5-5-5-5-5-5-5---|-----------------|-5-5-5-5-5-5-5---|
E|---5-5-5-5-5-5-5-|---------------5-|---5-5-5-5-5-5-5-|---------------5-|

G|-----------------|-----------------|-----------------|-----------------|
D|-----------------|-----------------|-----------------|-----------------|
A|-----------------|-5-5-5-5-5-5-5---|-----------------|-7-7-7-7-7-7-7---|
E|---5-5-5-5-5-5-5-|---------------3-|---3-3-3-3-3-3-3-|---------------5-|

G|-----------------|-----------------|-----------------|-----------------|
D|-----------------|-----------------|-----------------|-----------------|
A|-----------------|-5-5-5-5-5-5-5---|-----------------|-5-5-5-5-5-5-5---|
E|---5-5-5-5-5-5-5-|---------------5-|---5-5-5-5-5-5-5-|---------------5-|

G|-----------------|-----------------|-----------------|-----------------|
D|-----------------|-----------------|-----------------|-----------------|
A|-----------------|-5-5-5-5-5-5-5---|-----------------|-7-7-7-7-7-7-7-7-|
E|---5-5-5-5-5-5-5-|---------------3-|---3-3---3-3-3-3-|-----------------|

Pre chorus: Rest

Chorus:
G|-----------------|-----------------|-----------------|-----------------|
D|-----------------|-----------------|-----------------|-----------------|
A|-----------------|-----------------|-----------------|---------------5-|
E|-5-5-5-5-5-5-5-5-|-5-5-5-5-5-5-5-5-|-2-2-2-2-2-2-2-2-|-2-2-2-2-2-2-2---|

G|-----------------|-----------------|-----------------|-----------------|
D|-----------------|-----------------|-----------------|-----------------|
A|---5-5---5-5-5---|-----------------|-----------------|-----------------|
E|---------------3-|---3-3---3-3-3-5-|---5-5-5-5-5-5-5-|-5-5-5-5-3-3---5-|

G|-----------------|-----------------|-----------------|-----------------|
D|-----------------|-----------------|-----------------|-----------------|
A|-----------------|-----------------|-9-9-9-9-9-9-9-9-|-9-9-9-9-9-9-9-5-|
E|---5-5-5-5-5-5-5-|-5-5-5-5-5-5-5-5-|-----------------|-----------------|

G|-----------------|-----------------|
D|-----------------|-----------------|
A|---5-5---5-5-5-8-|---8---8---------|
E|-----------------|-----------------|

Break:
G|-----------------|-----------------|-----------------|-----------------|
D|-----------------|-----------------|-----------------|-----------------|
A|-----------------|-----------------|-----------------|-----------------|
E|-----------------|-----------------|-----------------|---------------5-|

Verse:
G|-----------------|-----------------|-----------------|-----------------|
D|-----------------|-----------------|-----------------|-----------------|
A|-----------------|-5-5-5-5-5-5-5---|-----------------|-5-5-5-5-5-5-5---|
E|---5-5-5-5-5-5-5-|---------------5-|---5-5-5-5-5-5-5-|---------------5-|

G|-----------------|-----------------|-----------------|-----------------|
D|-----------------|-----------------|-----------------|-----------------|
A|-----------------|-5-5-5-5-5-5-5---|-----------------|-7-7-7-7-7-7-7---|
E|---5-5-5-5-5-5-5-|---------------3-|---3-3-3-3-3-3-3-|---------------5-|

G|-----------------|-----------------|-----------------|-----------------|
D|-----------------|-----------------|-----------------|-----------------|
A|-----------------|-5-5-5-5-5-5-5---|-----------------|-5-5-5-5-5-5-5---|
E|---5-5-5-5-5-5-5-|---------------5-|---5-5-5-5-5-5-5-|---------------5-|

G|-----------------|-----------------|-----------------|-----------------|
D|-----------------|-----------------|-----------------|-----------------|
A|-----------------|-5-5-5-5-5-5-5---|---------------7-|---7-7-7-7-------|
E|---5-5-5-5-5-5-5-|---------------3-|---3-3---3-3-3---|-----------------|

Chorus:
G|-----------------|-----------------|-----------------|-----------------|
D|-----------------|-----------------|-----------------|-----------------|
A|-----------------|-----------------|-----------------|---------------5-|
E|-5-5-5-5-5-5-5-5-|-5-5-5-5-5-5-5-5-|-2-2-2-2-2-2-2-2-|-2-2-2-2-2-2-2---|

G|-----------------|-----------------|-----------------|-----------------|
D|-----------------|-----------------|-----------------|-----------------|
A|---5-5---5-5-5---|-----------------|-----------------|-----------------|
E|---------------3-|---3-3---3-3-3-5-|---5-5-5-5-5-5-5-|-5-5-5-5-3-3---5-|

G|-----------------|-----------------|-----------------|-----------------|
D|-----------------|-----------------|-----------------|-----------------|
A|-----------------|-----------------|-9-9-9-9-9-9-9-9-|-9-9-9-9-9-9-9-5-|
E|---5-5-5-5-5-5-5-|-5-5-5-5-5-5-5-5-|-----------------|-----------------|

G|-----------------|-----------------|
D|-----------------|-----------------|
A|---5-5---5-5-5-8-|---8---8---------|
E|-----------------|-----------------|

Pre-solo:
Rest 3 bars, then:
G|-----------------|-----------------|-----------------|-----------------|
D|-----------------|-----------------|-----------------|-7---------------|
A|-------------3/--|-7-5-7-5-----5---|-----------------|-----------------|
E|-----------------|-----------8---8-|---7-8-7---5-3-0-|-5---------------|

Solo:
G|-----------------|-----------------|-----------------|-----------------|
D|-----------------|-----------------|-----------------|-----------------|
A|-----------------|-----------------|-----------------|---------------5-|
E|-5-5-5-5-5-5-5-5-|-5-5-5-5-5-5-5-5-|-2-2-2-2-2-2-2-2-|-2-2-2-2-2-2-2---|

G|-----------------|-----------------|-----------------|-----------------|
D|-----------------|-----------------|-----------------|-----------------|
A|---5-5---5-5-5---|-----------------|-----------------|-----------------|
E|---------------3-|---3-3---3-3-3-5-|---5-5-5-5-5-5-5-|-5-5-5-5-3-3---5-|

G|-----------------|-----------------|-----------------|-----------------|
D|-----------------|-----------------|-----------------|-----------------|
A|-----------------|-----------------|-9-9-9-9-9-9-9-9-|-9-9-9-9-9-9-9-5-|
E|---5-5-5-5-5-5-5-|-5-5-5-5-5-5-5-5-|-----------------|-----------------|

G|-----------------|-----------------|
D|-----------------|-----------------|
A|---5-5---5-5-5---|-----------------|
E|---------------3-|---3-3---3-3-3---|

Pre chorus: Rest

Chorus:
G|-----------------|-----------------|-----------------|-----------------|
D|-----------------|-----------------|-----------------|-----------------|
A|-----------------|-----------------|-----------------|---------------5-|
E|-5-5-5-5-5-5-5-5-|-5-5-5-5-5-5-5-5-|-2-2-2-2-2-2-2-2-|-2-2-2-2-2-2-2---|

G|-----------------|-----------------|-----------------|-----------------|
D|-----------------|-----------------|-----------------|-----------------|
A|---5-5---5-5-5---|-----------------|-----------------|-----------------|
E|---------------3-|---3-3---3-3-3-5-|---5-5-5-5-5-5-5-|-5-5-5-5-3-3---5-|

G|-----------------|-----------------|-----------------|-----------------|
D|-----------------|-----------------|-----------------|-----------------|
A|-----------------|-----------------|-9-9-9-9-9-9-9-9-|-9-9-9-9-9-9-9-5-|
E|---5-5-5-5-5-5-5-|-5-5-5-5-5-5-5-5-|-----------------|-----------------|

G|-----------------|-----------------|
D|-----------------|-----------------|
A|---5-5---5-5-5---|-----------------|
E|---------------3-|---3-3---3-----5-|

Outro:
G|-----------------|-----------------|-----------------|-----------------|
D|-----------------|-----------------|-----------------|-----7---9p7-----|
A|-----------------|-----------------|---------------8-|---8---8-----8---|
E|---5-5---5-5-5-1-|---1-1---1-1-1---|-5---5---5-5-5---|-----------------|

G|-----------------|-----------------|-----------------|-----------------|
D|-----------------|-----------------|-----------------|-----------------|
A|---------------8-|---8-8---8-8-----|-----------------|-------3---3-----|
E|-5---5---5-5-5---|-----------------|-5-5---1---1---3-|---3-----------5-|

***********************************
| /   slide
| p   pull off
***********************************
Suggest correction
Give kudos to tab author, rate the tab!
1 2 3 4 5
comments
print report bad tab
guest
You may want to rate the tab now too:
select rating
Wanna post a correction for this tab? Suggest correction