Oops, an error
Loading. Please wait.

Revolution Radio Tab

version 2
version 2

Whole song

  • There's no solo in this tab yet, but keep an eye out for it.
  • The solo is included in this tab.
  • Full song, includes solo and rhythm and lead parts... Show more
  • First tab seen on the site, accurate as heard by ear.
  • This version is accurate complete has all the lyrics and the full guitar solo.

Interactive

Video

  • How to play Revolution Radio by Green Day on Guitar Easy to Follow.
11,890 views 462 this week
no commentswrite comment
1 2 3 4 5
x 7
add to favorites
launch autoscroll
font size
0
reset
how to read this tab
guitar tuner
Autoscroll
slow
fast
+/-
esc
set tempo
stop
Help us to improve Ultimate-Guitar.com Take our survey!
×
Author
About this tab version
The solo is included in this tab. Was this info helpful? Yes No
Tuning: E Standard
~ = vibrato
p&h = pull-off/hammer-on
P = Palm Mute
S = Squeal

Intro - Lead Guitar
e|----------------------------------------------------------------------------|
B|----------------------------------------------------------------------------|
G|--14-14-------14-14-------------14----16p14---------------------------------| x8
D|--------14-14-------14-15-15-15----15-------15-15---------------------------|
A|----------------------------------------------------------------------------|
E|----------------------------------------------------------------------------|

Intro - Rythm Guitar (After snare drum)
e|------------------------------------|    e|---------------------------------|
B|------------------------------------|    B|---------------------------------|    
G|------------------------------------| x3 G|---------------------------------| x1
D|--7--7-7-7-7-x-3--3-3-3-3-3-3-------|    D|--7--7-7-7-7-x-3-----------------| 
A|--7--7-7-7-7-x-3--3-3-3-3-3-3-------|    A|--7--7-7-7-7-x-3-----------------|
E|--5--5-5-5-5-0-1--1-1-1-1-1-1-------|    E|--5--5-5-5-5-0-1-----------------|

Verse - Rythm Guitar
e|------------------------------------|    e|---------------0--0-0-0-0-0-0-0--|    
B|------------------------------------|    B|---------------0--0-0-0-0-0-0-0--|    
G|-------------------7-7-7-7-7-7-7-7--| x3 G|---------------1--1-1-1-1-1-1-1--| x1 
D|--7--7-7-7-7-7-7-7-7-7-7-7-7-7-7-7--|    D|--5--5-5-5-5-x-2--2-2-2-2-2-2-2--|    
A|--7--7-7-7-7-7-7-7-5-5-5-5-5-5-5-5--|    A|--5--5-5-5-5-x-2--2-2-2-2-2-2-2--|    
E|--5--5-5-5-5-5-5-5------------------|    E|--3--3-3-3-3-0-0--0-0-0-0-0-0-0--|    
        P P P P P P P P P P P P P P          
           
Verse - Lead Guitar             Verse - Guitar 3
e|-------------------------|    e|--0-----------------------------|
B|-------------------------|    B|--0-----------------------------|
G|--------14----16p14------|    G|--0--10-10-10-10-10-10-10-10----|
D|--15-15----15-------15---|    D|--0-----------------------------|
A|-------------------------|    A|--0--8--8--8--8--8--8--8--8-----|
E|-------------------------|    E|--0-----------------------------|
   Play these two on the second go of the palm muted
   rythm guitar bit. eg: "...like you wanna testify"
   
Pre Chorus - Rythm Guitar       Pre Chorus - Lead Guitar
e|-------------------------|    e|--------------------------------|
B|-------------------------|    B|--------------------------------|
G|--10----9-9-9-9-9--------|    G|--------------------------------|
D|----x16------------------|    D|--7-9-10-14-12-10-12-9-9-9-9-9--|
A|--8-----7-7-7-7-7--------|    A|--------------------------------|
E|-------------------------|    E|--5-7-8--12-10-8--10-7-7-7-7-7--|

Chorus - Rythm Guitar
e|-----------------------------------|
B|-----------------------------------|
G|------------7----------------------| 
D|--7----4----7-x8-5----7----5-5-----| 
A|--7-x8-4-x8-5----5-x4-7-x4-5-5-----|
E|--5----2---------3----5----3-3-----|

e|-----------------------------------|
B|-----------------------------------|
G|------------7----10--10-10-10------| 
D|--7----4----7-x8-------------------| 
A|--7-x8-4-x8-5----8---8--8--8-------|
E|--5----2---------------------------|
  I honestly can't really make out
  the stroke pattern, these are the
  chords though
        

Chorus - Lead Guitar
e|----------------------------------|
B|----------------------------------|
G|-----14-14-------14-14------------|
D|--14-------14-14-------14~--------|
A|----------------------------------|
E|----------------------------------|
   Play this after Billie sings 
    "...my love's bullet proof"

Post-Chorus
e|-----------------------------------------------------|
B|-----------------------------------------------------|
G|---------------------5-5-5-5----------------------5--|
D|--7-7--3-3-3--5-5-5--5-5-5-5---7-7--3-3-3--5-5-5--5--|
A|--7-7--3-3-3--5-5-5--3-3-3-3---7-7--3-3-3--5-5-5--3--|
E|--5-5--1-1-1--3-3-3----------3-5-5--1-1-1--3-3-3-----|

[Repeat Verse]

[Repeat Chorus]

Pre-solo

e|-----------------------------------------------------|
B|-----------------------------------------------------|
G|---------------------5-5-5-5----------------------5--|
D|--7-7--3-3-3--5-5-5--5-5-5-5---7-7--3-3-3--5-5-5--5--|
A|--7-7--3-3-3--5-5-5--3-3-3-3---7-7--3-3-3--5-5-5--3--|
E|--5-5--1-1-1--3-3-3----------3-5-5--1-1-1--3-3-3-----|

e|----------------------------------|
B|----------------------------------|
G|----------------------------------|
D|----------------------------------|
A|--0-7p5h7p5-3h5p3-2h3p2-0---------|
E|--------------------------3p0-5~--|

Solo
e|--------------------------------------------|
B|--------------------------------------------|
G|--------------------------------------------|
D|--------------------------------------------|
A|--7-----------------9-----------------------|
E|----9-9s7-7s5-7-9~9---9-9s7-7s5-7-9~--------|

e|--------------------------------------------|
B|--------------------------------------------|
G|------------------------14-14-------14-14---|
D|---------------------------14-14-------14~--|
A|--7s5-5-5-5--7-5----------------------------|
E|-----------------5s7s0----------------------|
            S
                 
e|--------------------------------------------|
B|--------------------------------------------|
G|--------------------------------------------|
D|--------------------------------------------|
A|--7-----------------9--------9-11-9~--------|
E|----9-9s7-7s5-7-9~9---9-9--9----------------|

e|--------------------------------------------|
B|--------------------------------------------|
G|--------------------------------------------|
D|--------------------------------------------|
A|--7s5-5-5-5--7-5----------------------------|
E|-----------------5s7s0----------------------|
            S
                 
Post Solo - Rythm Guitar        Post Solo - Lead Guitar
e|-------------------------|    e|--------------------------------|
B|-------------------------|    B|--------------------------------|
G|--10----9-9-9-9-9--------|    G|--------------------------------|
D|----x16------------------|    D|--7-9-10-14-12-10-12-9-9-9-9-9--|
A|--8-----7-7-7-7-7--------|    A|--------------------------------|
E|-------------------------|    E|--5-7-8--12-10-8--10-7-7-7-7-7--|
                           
e|-------------------------|    e|--------------------------------|
B|-------------------------|    B|--------------------------------|
G|--10----9-9-9-9-9--------|    G|--------------------------------|
D|----x16------------------|    D|--7-9-10-14-12-10-12-14---------|
A|--8-----7-7-7-7-7--------|    A|--------------------------------|
E|-------------------------|    E|--5-7-8--12-10-8--10-12---------|

Chorus - Rythm Guitar
e|-----------------------------------|
B|-----------------------------------|
G|------------7----------------------| 
D|--7----4----7-x8-5----7----5-5-----| 
A|--7-x8-4-x8-5----5-x4-7-x4-5-5-----|
E|--5----2---------3----5----3-3-----|

e|-----------------------------------|
B|-----------------------------------|
G|------------7----10--10-10-10------| 
D|--7----4----7-x8-------------------| 
A|--7-x8-4-x8-5----8---8--8--8-------|
E|--5----2---------------------------|
        
Chorus - Lead Guitar
e|----------------------------------|
B|----------------------------------|
G|-----14-14-------14-14------------|
D|--14-------14-14-------14~--------|
A|----------------------------------|
E|----------------------------------|
   Play this after Billie sings 
    "...my love's bullet proof"

Outro - Lead Guitar
e|----------------------------------------------------------------------------|
B|----------------------------------------------------------------------------|
G|--14-14-------14-14-------------14----16p14---------------------------------| x3
D|--------14-14-------14-15-15-15----15-------15-15---------------------------|
A|----------------------------------------------------------------------------|
E|----------------------------------------------------------------------------|

Outro - Rythm Guitar
e|------------------------------------|
B|------------------------------------|
G|------------------------------------|
D|--7--7-7-7-7-x-3--3-3-3-3-3-3-------| x3
A|--7--7-7-7-7-x-3--3-3-3-3-3-3-------|
E|--5--5-5-5-5-0-1--1-1-1-1-1-1-------|

e|-----------------------------|
B|-----------------------------|
G|-----------------5-5---------|
D|--7-7--3-3--5-5--5-5--7\-----|
A|--7-7--3-3--5-5--3-3--7\-----|
E|--5-5--1-1--3-3-------5\-----|


Order:
Intro
Verse
Pre-Chorus
Chorus
Post-Chorus
Verse
Chorus
Post-Chorus
Pre-Solo & Post-Chorus
Solo & Chorus 2x
Post-Solo
Chorus
Intro (Partial)
Outro

Lyrics:
Scream with your hands up in the sky
Like you want to testify
For the life that's been deleted

Scream like a rebel's lullaby
Under the stars and stripes
For the lost souls that were cheated

We will be seen but not be heard

We are, revolution radio
Operation no control
In the headline, my love's bullet proof
Give me cherry bombs and gasoline
Debutants and surgery
In the headline, we call lies the truth

Give me rage
Like there's tear gas in the crowd
Do you want to live out loud
But the air is barely breathing

Lies, all the slums to the obsolete
The dawn of the new airwaves
For the anti-social media

We are, revolution radio
Operation no control
In the headline, my love's bullet proof
Give me cherry bombs and gasoline
Debutants and surgery
In the headline, we call lies the truth

We will be seen but not be heard
We are the songs of the disturbed

We are, revolution radio
Operation no control
In the headline, my love's bullet proof
Give me cherry bombs and gasoline
Debutants and surgery
In the headline, we call lies the truth
Suggest correction
comments
print report bad tab
guest
You may want to rate the tab now too:
select rating
Wanna post a correction for this tab? Suggest correction