Oops, an error
Loading. Please wait.
We have an official Revolution Radio tab made by UG professional guitarists. Check out the tab »
×

Revolution Radio Tab

version 4
version 4

Whole song

  • The solo is included in this tab.
  • Full song, includes solo and rhythm and lead parts... Show more
  • First tab seen on the site, accurate as heard by ear.
  • This version is accurate complete has all the lyrics and the full guitar solo.

Interactive

Video

  • How to play Revolution Radio by Green Day on Guitar Easy to Follow.
  • High quality, easy to follow video lesson.
958 views 27 this week
no commentswrite comment
1 2 3 4 5
x 4
add to favorites
launch autoscroll
font size
0
reset
how to read this tab
guitar tuner
Autoscroll
slow
fast
+/-
esc
set tempo
stop
Author
Difficulty
intermediate
About this tab version
First tab seen on the site, accurate as heard by ear. Was this info helpful? Yes No
first tab so excuse any mistakes i may have in the layout but i didn't see a tab for the 
song yet so I figured i'd submit one

INTRO

GTR I
E|------------------------------------------------|
B|--10-10-----10-10------------10----12p10--------|
G|--------9-9-------9-10-10-10----10-------10-10--|
D|------------------------------------------------| x8
A|------------------------------------------------|
E|------------------------------------------------|

GTR II comes in on 5th cycle
E|---------------------------------|
B|---------------------------------|
G|--2--2-2-2-2-2-2-----------------|
D|--2--2-2-2-2-2-2-3--3-3-3-3-3-3--|x4
A|--0--0-0-0-0-0-0-3--3-3-3-3-3-3--|
E|-----------------1--1-1-1-1-1-1--|
   D  D U D U D U D  D U D U D U

GTR II on last cycle
E|--------------------|
B|--------------------|
G|--2--2-2-2-2-2-2----|
D|--2--2-2-2-2-2-2-3--|
A|--0--0-0-0-0-0-0-3--|
E|-----------------1--|
   D  D U D U D U D

VERSE

GTR I
E|-----------------------------------------------------------------------|
B|-------------------------------------------------------10----12p10-----|
G|-----------------7-7-7-7-7-7-7-7----------------/10-10----10-------10--|
D|--7--7-7-7-7-7-7-7-7-7-7-7-7-7-7-7--7-7-7-7-7-7------------------------|
A|--7--7-7-7-7-7-7-5-5-5-5-5-5-5-5-7--7-7-7-7-7-7------------------------|
E|--5--5-5-5-5-5-5-----------------5--5-5-5-5-5-5------------------------|
PM     * * * * * * * * * * * * * *    * * * * * *
    A5             D5              A5
E|------------------------------------------------------0-0-0-0-0-|
B|------------------------------------------------------0-0-0-0-0-|
G|-----------------7-7-7-7-7-7-7-7----------------------1-1-1-1-1-|
D|--7--7-7-7-7-7-7-7-7-7-7-7-7-7-7-5--5-5-5-5-5-5--2--2---2-2-2-2-|
A|--7--7-7-7-7-7-7-5-5-5-5-5-5-5-5-5--5-5-5-5-5-5--2--2---2-2-2-2-|
E|--5--5-5-5-5-5-5-----------------3--3-3-3-3-3-3--0--0---0-0-0-0-|
PM     * * * * * * * * * * * * * *
    A5             D5              G5              Emaj

Repeat

GTR II
E|-----------------------------------------------------------------------|
B|-----------------------------------------------------------------------|
G|-----------------7-7-7-7-7-7-7-7----------------7-7-7-7-7-7-7-7--------|
D|--7--7-7-7-7-7-7-7-7-7-7-7-7-7-7-7--7-7-7-7-7-7-7-7-7-7-7-7-7-7--------|
A|--7--7-7-7-7-7-7-5-5-5-5-5-5-5-5-7--7-7-7-7-7-7-5-5-5-5-5-5-5-5--------|
E|--5--5-5-5-5-5-5-----------------5--5-5-5-5-5-5------------------------|
PM     * * * * * * * * * * * * * *    * * * * * *
    A5             D5              A5             D5
E|------------------------------------------------------0-0-0-0-0-|
B|------------------------------------------------------0-0-0-0-0-|
G|-----------------7-7-7-7-7-7-7-7----------------------1-1-1-1-1-|
D|--7--7-7-7-7-7-7-7-7-7-7-7-7-7-7-5--5-5-5-5-5-5--2--2---2-2-2-2-|
A|--7--7-7-7-7-7-7-5-5-5-5-5-5-5-5-5--5-5-5-5-5-5--2--2---2-2-2-2-|
E|--5--5-5-5-5-5-5-----------------3--3-3-3-3-3-3--0--0---0-0-0-0-|
PM     * * * * * * * * * * * * * *
    A5             D5              G5              Emaj
Repeat

PRE-CHORUS

GTR I
E|------------------------------------|
B|------------------------------------|
G|------------------------------------|
D|--7---9---10--14---12---10--12---9--|
A|--x---x---x---x----x----x---x----x--|
E|--5---7---8---12---10---8---10---7--|

I don't know how many times GTR II plays it's notes so I'm just going to match up the 
change with which octave
it changes on.
GTR II
E|-----------------------------------------|
B|-----------------------------------------|
G|--101010101010101010101010101010-999999--|
D|-----------------------------------------|
A|-----------------------------------------|
E|-----------------------------------------|
                                         (We are)

CHORUS

GTR I
E|-------------------------------------------------------------------|
B|-------------------------------------------------------------------|
G|-------------------------------------------------------------------|
D|--7-7-7-7-7-7-7-7-7-7-7-7-7-7-7-7-4-4-4-4-4-4-4-4-4-4-4-4-4-4-4-4--|
A|--7-7-7-7-7-7-7-7-7-7-7-7-7-7-7-7-4-4-4-4-4-4-4-4-4-4-4-4-4-4-4-4--|
E|--5-5-5-5-5-5-5-5-5-5-5-5-5-5-5-5-2-2-2-2-2-2-2-2-2-2-2-2-2-2-2-2--|
    D U D U D U D U D U D U D U D U D U D U D U D U D U D U D U D U
E|-----------------------------------------------------------|
B|-----------------------------------10-10-----10-10---------|
G|--7-7-7-7-7-7-7-7------------------------9-9-------9~------|
D|--7-7-7-7-7-7-7-7-5-5-5-5-5-5-5-5---------------------x-x--|
A|--5-5-5-5-5-5-5-5-5-5-5-5-5-5-5-5---------------------x-x--|
E|------------------3-3-3-3-3-3-3-3---------------------x-x--|
    D U D U D U D U D U D U D U D U  D  U  D U D  U  D  D D
                                                        Gimme...
E|-------------------------------------------------------------------|
B|-------------------------------------------------------------------|
G|-------------------------------------------------------------------|
D|--7-7-7-7-7-7-7-7-7-7-7-7-7-7-7-7-4-4-4-4-4-4-4-4-4-4-4-4-4-4-4-4--|
A|--7-7-7-7-7-7-7-7-7-7-7-7-7-7-7-7-4-4-4-4-4-4-4-4-4-4-4-4-4-4-4-4--|
E|--5-5-5-5-5-5-5-5-5-5-5-5-5-5-5-5-2-2-2-2-2-2-2-2-2-2-2-2-2-2-2-2--|
    D U D U D U D U D U D U D U D U D U D U D U D U D U D U D U D U
E|--------------------------------------------------|
B|--------------------------------------------------|
G|--7-7-7-7-7-7-7-7-10101010--------|
D|--7-7-7-7-7-7-7-7-10101010--------|
A|--5-5-5-5-5-5-5-5-8-8-8-8---------|
E|-----------------------------------|
    D U D U D U D U D U D U 
                    Legalize THE TRUTH
GTR II
E|-------------------------------------------------------------------|
B|-------------------------------------------------------------------|
G|-------------------------------------------------------------------|
D|--7-7-7-7-7-7-7-7-7-7-7-7-7-7-7-7-4-4-4-4-4-4-4-4-4-4-4-4-4-4-4-4--|
A|--7-7-7-7-7-7-7-7-7-7-7-7-7-7-7-7-4-4-4-4-4-4-4-4-4-4-4-4-4-4-4-4--|
E|--5-5-5-5-5-5-5-5-5-5-5-5-5-5-5-5-2-2-2-2-2-2-2-2-2-2-2-2-2-2-2-2--|
    D U D U D U D U D U D U D U D U D U D U D U D U D U D U D U D U
E|-------------------------------------------------------------------|
B|-------------------------------------------------------------------|
G|--7-7-7-7-7-7-7-7--------------------------------------------------|
D|--7-7-7-7-7-7-7-7-5-5-5-5-5-5-5-5-7-7-7-7-7-7-7-7-7-7-7-7-7-7-x-x--|
A|--5-5-5-5-5-5-5-5-5-5-5-5-5-5-5-5-7-7-7-7-7-7-7-7-7-7-7-7-7-7-x-x--|
E|------------------3-3-3-3-3-3-3-3-5-5-5-5-5-5-5-5-5-5-5-5-5-5-x-x--|
    D U D U D U D U D U D U D U D U D U D U D U D U D U D U D U D D
                                                                Gimme...
E|-------------------------------------------------------------------|
B|-------------------------------------------------------------------|
G|-------------------------------------------------------------------|
D|--7-7-7-7-7-7-7-7-7-7-7-7-7-7-7-7-4-4-4-4-4-4-4-4-4-4-4-4-4-4-4-4--|
A|--7-7-7-7-7-7-7-7-7-7-7-7-7-7-7-7-4-4-4-4-4-4-4-4-4-4-4-4-4-4-4-4--|
E|--5-5-5-5-5-5-5-5-5-5-5-5-5-5-5-5-2-2-2-2-2-2-2-2-2-2-2-2-2-2-2-2--|
    D U D U D U D U D U D U D U D U D U D U D U D U D U D U D U D U
E|--------------------------------------------------|
B|--------------------------------------------------|
G|--7-7-7-7-7-7-7-7-----------------10101010--------|
D|--7-7-7-7-7-7-7-7-5-5-5-5-5-5-5-5-10101010--------|
A|--5-5-5-5-5-5-5-5-5-5-5-5-5-5-5-5-8-8-8-8---------|
E|------------------3-3-3-3-3-3-3-3-----------------|
    D U D U D U D U D U D U D U D U D U D U
                                    Legalize THE TRUTH

POST-CHORUS
E|------------------------------------------------------|
B|------------------------------------------------------|
G|-----------------------5-5-------------------------5--|
D|--7-7----3-3----5-5----5-5----7-7----3-3----5-5----5--|
A|--7-7----3-3----5-5----3-3----7-7----3-3----5-5----3--|
E|--5-5----1-1----3-3-----------5-5----1-1----3-3-------|
    D U    D U    D U    D U    D U    D U    D U    D

REPEAT VERSE

REPEAT CHORUS

PRE-SOLO
E|---------------------------|-----------------------------|
B|---------------------------|-----------------------------|
G|-----------------------5-5-|--------------------------5--|
D|--7-7----3-3----5-5----5-5-|x3---7-7----3-3----5-5----5--|
A|--7-7----3-3----5-5----3-3-|-----7-7----3-3----5-5----3--|
E|--5-5----1-1----3-3--------|-----5-5----1-1----3-3-------|
    D U    D U    D U    D U      D U    D U    D U    D
SOLO
GTR I
E|-----------------------------------------------------------------------------------|
B|------------------------------------------------------------10-10-----10-10--------|
G|-----------------------------------------9--7--7ph-9--7-----------9~--------9~-----|
D|--14--11-9--7--9--11-16--11-9--7--9--11--x--x------x--x--5---------------------x-x-|
A|--x---x--x--x--x--x--x---x--x--x--x--x---7--5------7--5--x---------------------x-x-|
E|--12--9--7--5--7--9--14--9--7--5--7--9-------------------3---------------------x-x-|
    D   D  U  D  D  D  D   D  U  D  D  D   D  U  D   D  U  D  D  U  D   D  U  D  D D
E|------------------------------------------------------------|
B|------------------------------------------------------------|
G|-------------------------------11-13-11--9--7--7---9--7-----|
D|--14--11-9--7--9--11-16--11-9--x--x--x---x--x--x---x--x--5--|
A|--x---x--x--x--x--x--x---x--x--9--11-9---7--5--5---7--5--x--|
E|--12--9--7--5--7--9--14--9--7----------------------------3--|
    D   D  U  D  D  D  D   D  U  D  D  D   D  U  D   D  U  D

GTR II plays chorus behind solo.

PRE-CHORUS

GTR I
E|-------------------------------------------------------------------------------------|
B|-------------------------------------------------------------------------------------|
G|-------------------------------------------------------------------------------------|
D|--7---9---10--14---12---10--12---9----------------7---9---10--14---12---10--12---14--|
A|--x---x---x---x----x----x---x----x----------------x---x---x---x----x----x---x----x---|
E|--5---7---8---12---10---8---10---7----------------5---7---8---12---10---8---10---12--|
    D   D   D   D    D    D   D    D                D   D   D   D    D    D   D    D
GTR II
E|----------------------------------------------------------------------------------------|
B|----------------------------------------------------------------------------------------|
G|--101010101010101010101010101010-999999999999999-101010101010101010101010101010-999999--|
D|----------------------------------------------------------------------------------------|
A|----------------------------------------------------------------------------------------|
E|----------------------------------------------------------------------------------------|
                                                                                        
(We are)

REPEAT CHORUS

OUTRO
GTR I
E|------------------------------------------------|
B|--10-10-----10-10------------10----12p10--------|
G|--------9-9-------9-10-10-10----10-------10-10--|
D|------------------------------------------------| x3
A|------------------------------------------------|
E|------------------------------------------------|

GTR II
E|---------------------------------|
B|---------------------------------|
G|--2--2-2-2-2-2-2-----------------|
D|--2--2-2-2-2-2-2-3--3-3-3-3-3-3--|x3
A|--0--0-0-0-0-0-0-3--3-3-3-3-3-3--|
E|-----------------1--1-1-1-1-1-1--|
   D  D U D U D U D  D U D U D U

END
E|----------------------------------|
B|----------------------------------|
G|-----------------------5-5--------|
D|--7-7----3-3----5-5----5-5----7\--|
A|--7-7----3-3----5-5----3-3----7\--|
E|--5-5----1-1----3-3-----------5\--|

KEY
----
* - palm mute (where noted)
PH- pinch harmonic
/ - slide up
\ - slide down
x - note mute
~ - note ring

SONG ORDER
----------
Intro
Verse
Pre-Chorus
Chorus
Post-Chorus
Verse
Chorus
Pre-Solo
Solo
Pre-Final Chorus
Chorus
Outro
End
Suggest correction
comments
print report bad tab
guest
You may want to rate the tab now too:
select rating
Wanna post a correction for this tab? Suggest correction