Oops, an error
Loading. Please wait.

Revolution Radio Tab

version 5
version 5

Whole song

  • There's no solo in this tab yet, but keep an eye out for it.
  • The solo is included in this tab.
  • Full song, includes solo and rhythm and lead parts... Show more
  • First tab seen on the site, accurate as heard by ear.
  • This version is accurate complete has all the lyrics and the full guitar solo.

Interactive

Video

  • How to play Revolution Radio by Green Day on Guitar Easy to Follow.
367 views 9 this week
1 commentread comment
1 2 3 4 5
x 3
add to favorites
launch autoscroll
font size
0
reset
how to read this tab
guitar tuner
Autoscroll
slow
fast
+/-
esc
set tempo
stop
Help us to improve Ultimate-Guitar.com Take our survey!
×
About this tab version
This version is accurate complete has all the lyrics and the full guitar solo. Was this info helpful? Yes No
REVOLUTION RADIO

[INTRO]
E|------------------------------------------------|
B|--10-10-----10-10------------10----12-10--------|
G|--------9-9-------9-10-10-10----10-------10-----|
D|------------------------------------------------| 
A|------------------------------------------------|
E|------------------------------------------------|

E|------------------------------------------------|
B|--10-10-----10-10------------10----12-10--------|
G|--------9-9-------9-10-10-10----10-------10-----|
D|------------------------------------------------| 
A|------------------------------------------------|
E|------------------------------------------------|

E|------------------------------------------------|
B|--10-10-----10-10------------10----12-10--------|
G|--------9-9-------9-10-10-10----10-------10-----|
D|------------------------------------------------| 
A|------------------------------------------------|
E|------------------------------------------------|

E|------------------------------------------------|
B|--10-10-----10-10------------10----12-10--------|
G|--------9-9-------9-10-10-10----10-------10-----|
D|------------------------------------------------| 
A|------------------------------------------------|
E|------------------------------------------------|

E|-----------------------------------------------------------------------------|
B|-----------------------------------------------------------------------------|
G|-----------------------------------------------------------------------------|
D|--7-7-7-7-7--3-3-3-3-3-3--7-7-7-7-7--3-3-3-3-3-3--7-7-7-7-7--3-3-3-3-3-3-----| 
A|--7-7-7-7-7--3-3-3-3-3-3--7-7-7-7-7--3-3-3-3-3-3--7-7-7-7-7--3-3-3-3-3-3-----|
E|--5-5-5-5-5--1-1-1-1-1-1--5-5-5-5-5--1-1-1-1-1-1--5-5-5-5-5--1-1-1-1-1-1-----|

E|--------------------|
B|--------------------|
G|--------------------|
D|--7-7-7-7-7--3------| 
A|--7-7-7-7-7--3------|
E|--5-5-5-5-5--1------|

[VERSE 1]
E|-----------------------------------------------------------------------------|
B|-----------------------------------------------------------------------------|
G|--------------------7-7-7-7--7-7-7-7--------------------7-7-7-7--7-7-7-7-----|
D|--7-7-7-7--7-7-7-7--7-7-7-7--7-7-7-7--7-7-7-7--7-7-7-7--7-7-7-7--7-7-7-7-----| 
A|--7-7-7-7--7-7-7-7--5-5-5-5--5-5-5-5--7-7-7-7--7-7-7-7--5-5-5-5--5-5-5-5-----|
E|--5-5-5-5--5-5-5-5--------------------5-5-5-5--5-5-5-5-----------------------|
    SCREAM WITH YOUR  HANDS UP IN THE   SKY               LIKE YOU WANNA TEST-

E|--------------------------------------------------------------------|
B|--------------------------------------------------------------------|
G|--------------------7-7-7-7--7-7-7-7--------------------------------|
D|--7-7-7-7--7-7-7-7--7-7-7-7--7-7-7-7--5-5-5-5-5---2-2-2-2-2-2-------| 
A|--7-7-7-7--7-7-7-7--5-5-5-5--5-5-5-5--5-5-5-5-5---2-2-2-2-2-2-------|
E|--5-5-5-5--5-5-5-5--------------------3-3-3-3-3---0-0-0-0-0-0-------|
    -IFY FOR THE      LIFE THAT’S BEEN  DELETED

E|-----------------------------------------------------------------------------|
B|-----------------------------------------------------------------------------|
G|--------------------7-7-7-7--7-7-7-7--------------------7-7-7-7--7-7-7-7-----|
D|--7-7-7-7--7-7-7-7--7-7-7-7--7-7-7-7--7-7-7-7--7-7-7-7--7-7-7-7--7-7-7-7-----| 
A|--7-7-7-7--7-7-7-7--5-5-5-5--5-5-5-5--7-7-7-7--7-7-7-7--5-5-5-5--5-5-5-5-----|
E|--5-5-5-5--5-5-5-5--------------------5-5-5-5--5-5-5-5-----------------------|
    SING              LIKE A REBEL'S LULLABYE             UNDER THE STARS AND

E|-----------------------------------------------------------------------|
B|-----------------------------------------------------------------------|
G|--------------------7-7-7-7--7-7-7-7-----------------------------------|
D|--7-7-7-7--7-7-7-7--7-7-7-7--7-7-7-7-----5-5-5-5-5-5--2-2-2-2-2-2------| 
A|--7-7-7-7--7-7-7-7--5-5-5-5--5-5-5-5-----5-5-5-5-5-5--2-2-2-2-2-2------|
E|--5-5-5-5--5-5-5-5-----------------------3-3-3-3-3-3--0-0-0-0-0-0------|
    STRIPES FOR THE   LOST SOULS THAT WERE CHEATED

[PRE-CHORUS]
E|---------------------------------------------|
B|---------------------------------------------|
G|---------------------------------------------|
D|--7---9---10---14---12--10--12--9------------|
A|--x---x---x----x----x---x---x---x------------|
E|--5---7---8----12---10--8---10--7------------|
    WE WILL BEEN SEEN BUT NOT BE HEARD  WE ARE

[CHORUS]
E|-----------------------------------------------------------------------------|
B|-----------------------------------------------------------------------------|
G|--------------------------------------7-7-7-7--7-7-7-7--7-7-7-7--7-7-7-7-----|
D|--7-7-7-7--7-7-7-7--7-7-7-7--7-7-7-7--7-7-7-7--7-7-7-7--7-7-7-7--7-7-7-7-----| 
A|--7-7-7-7--7-7-7-7--7-7-7-7--7-7-7-7--5-5-5-5--5-5-5-5--5-5-5-5--5-5-5-5-----|
E|--5-5-5-5--5-5-5-5--5-5-5-5--5-5-5-5-----------------------------------------|
    REVOLUTION RADIO                    OPERATION NO CONTROL

E|------------------------------------------------------------------|
B|------------------------------------------10-10-----10-10---------|
G|------------------------------------------------9-9-------9-------|
D|--7-7-7-7--7-7-7-7--5-5-5-5--5-5-5-5--7---------------------------| 
A|--7-7-7-7--7-7-7-7--5-5-5-5--5-5-5-5--7---------------------------|
E|--5-5-5-5--5-5-5-5--3-3-3-3--3-3-3-3--5---------------------------|
    AND THE HEADLINE  MY LOVES BULLET PROOF GIVE ME

E|-----------------------------------------------------------------------------|
B|-----------------------------------------------------------------------------|
G|--------------------------------------7-7-7-7--7-7-7-7--7-7-7-7--7-7-7-7-----|
D|--7-7-7-7--7-7-7-7--7-7-7-7--7-7-7-7--7-7-7-7--7-7-7-7--7-7-7-7--7-7-7-7-----| 
A|--7-7-7-7--7-7-7-7--7-7-7-7--7-7-7-7--5-5-5-5--5-5-5-5--5-5-5-5--5-5-5-5-----|
E|--5-5-5-5--5-5-5-5--5-5-5-5--5-5-5-5-----------------------------------------|
    CHERRY BOMBS      AND GASOLINE      DEBUTANTS         IN SURGERY

E|---------------------------------------|
B|---------------------------------------|
G|--------------------10-10-10-10--------|
D|--7-7-7-7--7-7-7-7--10-10-10-10--------| 
A|--7-7-7-7--7-7-7-7--8--8--8--8---------|
E|--5-5-5-5--5-5-5-5---------------------|
    AND THE HEADLINE  LEGALIZE THE 

[POST CHORUS]
E|------------------------------------------------------|
B|------------------------------------------------------|
G|--------------------5-5---------------------5---------|
D|--7-7---3-3---5-5---5-5---7-7---3-3---5-5---5---------|
A|--7-7---3-3---5-5---3-3---7-7---3-3---5-5---3---------|
E|--5-5---1-1---3-3---------5-5---1-1---3-3-------------|
    TRUTH                                        GIVE ME

[VERSE 2]
E|-----------------------------------------------------------------------------|
B|-----------------------------------------------------------------------------|
G|--------------------7-7-7-7--7-7-7-7--------------------7-7-7-7--7-7-7-7-----|
D|--7-7-7-7--7-7-7-7--7-7-7-7--7-7-7-7--7-7-7-7--7-7-7-7--7-7-7-7--7-7-7-7-----| 
A|--7-7-7-7--7-7-7-7--5-5-5-5--5-5-5-5--7-7-7-7--7-7-7-7--5-5-5-5--5-5-5-5-----|
E|--5-5-5-5--5-5-5-5--------------------5-5-5-5--5-5-5-5-----------------------|
    RAGE LIKE THERE’S TEARGAS IN THE    CROWD             DO YOU WANNA LIVE OUT

E|--------------------------------------------------------------------|
B|--------------------------------------------------------------------|
G|--------------------7-7-7-7--7-7-7-7--------------------------------|
D|--7-7-7-7--7-7-7-7--7-7-7-7--7-7-7-7--5-5-5-5-5---2-2-2-2-2-2-------| 
A|--7-7-7-7--7-7-7-7--5-5-5-5--5-5-5-5--5-5-5-5-5---2-2-2-2-2-2-------|
E|--5-5-5-5--5-5-5-5--------------------3-3-3-3-3---0-0-0-0-0-0-------|
    LOUD BUT THE      AIR IS BARELY     BREATHING

E|-----------------------------------------------------------------------------|
B|-----------------------------------------------------------------------------|
G|--------------------7-7-7-7--7-7-7-7--------------------7-7-7-7--7-7-7-7-----|
D|--7-7-7-7--7-7-7-7--7-7-7-7--7-7-7-7--7-7-7-7--7-7-7-7--7-7-7-7--7-7-7-7-----| 
A|--7-7-7-7--7-7-7-7--5-5-5-5--5-5-5-5--7-7-7-7--7-7-7-7--5-5-5-5--5-5-5-5-----|
E|--5-5-5-5--5-5-5-5--------------------5-5-5-5--5-5-5-5-----------------------|
    RISE OF THE       SLUMS TO THE      OBSOLETE          THE DAWN OF THE NEW 

E|-----------------------------------------------------------------------|
B|-----------------------------------------------------------------------|
G|--------------------7-7-7-7--7-7-7-7-----------------------------------|
D|--7-7-7-7--7-7-7-7--7-7-7-7--7-7-7-7-----5-5-5-5-5-5--2-2-2-2-2-2------| 
A|--7-7-7-7--7-7-7-7--5-5-5-5--5-5-5-5-----5-5-5-5-5-5--2-2-2-2-2-2------|
E|--5-5-5-5--5-5-5-5-----------------------3-3-3-3-3-3--0-0-0-0-0-0------|
    AIRWAVES FOR THE  ANTISOCIAL           MEDIA                    WE ARE

[CHORUS]
E|-----------------------------------------------------------------------------|
B|-----------------------------------------------------------------------------|
G|--------------------------------------7-7-7-7--7-7-7-7--7-7-7-7--7-7-7-7-----|
D|--7-7-7-7--7-7-7-7--7-7-7-7--7-7-7-7--7-7-7-7--7-7-7-7--7-7-7-7--7-7-7-7-----| 
A|--7-7-7-7--7-7-7-7--7-7-7-7--7-7-7-7--5-5-5-5--5-5-5-5--5-5-5-5--5-5-5-5-----|
E|--5-5-5-5--5-5-5-5--5-5-5-5--5-5-5-5-----------------------------------------|
    REVOLUTION RADIO                    OPERATION NO CONTROL

E|-----------------------------------------------------------------------------|
B|--------------------------------------------------------10-10-----10-10------|
G|--------------------------------------------------------------9-9-------9----|
D|--7-7-7-7--7-7-7-7--5-5-5-5--5-5-5-5--7-7-7-7--7-7-7-7-----------------------| 
A|--7-7-7-7--7-7-7-7--5-5-5-5--5-5-5-5--7-7-7-7--7-7-7-7-----------------------|
E|--5-5-5-5--5-5-5-5--3-3-3-3--3-3-3-3--5-5-5-5--5-5-5-5-----------------------|
    AND THE HEADLINE  MY LOVES BULLET PROOF                             GIVE ME

E|-----------------------------------------------------------------------------|
B|-----------------------------------------------------------------------------|
G|--------------------------------------7-7-7-7--7-7-7-7--7-7-7-7--7-7-7-7-----|
D|--7-7-7-7--7-7-7-7--7-7-7-7--7-7-7-7--7-7-7-7--7-7-7-7--7-7-7-7--7-7-7-7-----| 
A|--7-7-7-7--7-7-7-7--7-7-7-7--7-7-7-7--5-5-5-5--5-5-5-5--5-5-5-5--5-5-5-5-----|
E|--5-5-5-5--5-5-5-5--5-5-5-5--5-5-5-5-----------------------------------------|
    CHERRY BOMBS      AND GASOLINE      DEBUTANTS         IN SURGERY

E|---------------------------------------|
B|---------------------------------------|
G|--------------------10-10-10-10--------|
D|--7-7-7-7--7-7-7-7--10-10-10-10--------| 
A|--7-7-7-7--7-7-7-7--8--8--8--8---------|
E|--5-5-5-5--5-5-5-5---------------------|
    AND THE HEADLINE  LEGALIZE THE

[POST CHORUS]
E|------------------------------------------------------|
B|------------------------------------------------------|
G|--------------------5-5---------------------5-5-------|
D|--7-7---3-3---5-5---5-5---7-7---3-3---5-5---5-5-------|
A|--7-7---3-3---5-5---3-3---7-7---3-3---5-5---3-3-------|
E|--5-5---1-1---3-3---------5-5---1-1---3-3-------------|
    TRUTH 

[SOLO]
E|------------------------------------------------------|
B|------------------------------------------------------|
G|------------------------------------------------------|
D|------------------------------------------------------|
A|--------7-5-7-5--3-5-3--2-3-2-------------------------|
E|--15/0-------------------------5-3-0-5----------------|

E|-----------------------------------------------------------------------------|
B|-----------------------------------------------------------------------------|
G|--9------------------------11-----------------------9--7--7b--9--7-----------|
D|--x--11--11--9--7--9--11---x---11--11--9--7--9--11--x--x------x--x--5--7-----|
A|--7--x---x---x--x--x--x----9---x---x---x--x--x--x---7--5------7--5--x--x-----|
E|-----9---9---7--5--7--9--------9---9---7--5--7--9-------------------3--5-----|

E|---------------------------------|
B|--10-10-----10-10----------------|
G|--------9-9-------9--------------|
D|---------------------------------|
A|---------------------------------|
E|---------------------------------|

E|------------------------------------------------------------------------------|
B|------------------------------------------------------------------------------|
G|--9------------------------11----------11--11--13--11--9--7--7b--9--7---------|
D|--x--11--11--9--7--9--11---x---11--11--x---x---x---x---x--x------x--x--5--7---|
A|--7--x---x---x--x--x--x----9---x---x---9---9---11--9---7--5------7--5--x--x---|
E|-----9---9---7--5--7--9--------9---9-----------------------------------3--5---|

[PRE-CHORUS]
E|---------------------------------------------|
B|---------------------------------------------|
G|---------------------------------------------|
D|--7---9---10---14---12--10--12--9------------|
A|--x---x---x----x----x---x---x---x------------|
E|--5---7---8----12---10--8---10--7------------|
    WE WILL BEEN SEEN BUT NOT BE HEARD  

E|---------------------------------------------|
B|---------------------------------------------|
G|---------------------------------------------|
D|--7---9---10---14----12--10--12--9-----------|
A|--x---x---x----x-----x---x---x---x-----------|
E|--5---7---8----12----10--8---10--7-----------|
    WE  ARE THE  SONGS OF  THE DISTURBED  WE ARE

[CHORUS]
E|-----------------------------------------------------------------------------|
B|-----------------------------------------------------------------------------|
G|--------------------------------------7-7-7-7--7-7-7-7--7-7-7-7--7-7-7-7-----|
D|--7-7-7-7--7-7-7-7--7-7-7-7--7-7-7-7--7-7-7-7--7-7-7-7--7-7-7-7--7-7-7-7-----| 
A|--7-7-7-7--7-7-7-7--7-7-7-7--7-7-7-7--5-5-5-5--5-5-5-5--5-5-5-5--5-5-5-5-----|
E|--5-5-5-5--5-5-5-5--5-5-5-5--5-5-5-5-----------------------------------------|
    REVOLUTION RADIO                    OPERATION NO CONTROL

E|-----------------------------------------------------------------------------|
B|--------------------------------------------------------10-10-----10-10------|
G|--------------------------------------------------------------9-9-------9----|
D|--7-7-7-7--7-7-7-7--5-5-5-5--5-5-5-5--7-7-7-7--7-7-7-7-----------------------| 
A|--7-7-7-7--7-7-7-7--5-5-5-5--5-5-5-5--7-7-7-7--7-7-7-7-----------------------|
E|--5-5-5-5--5-5-5-5--3-3-3-3--3-3-3-3--5-5-5-5--5-5-5-5-----------------------|
    AND THE HEADLINE  MY LOVES BULLET PROOF                             GIVE ME

E|-----------------------------------------------------------------------------|
B|-----------------------------------------------------------------------------|
G|--------------------------------------7-7-7-7--7-7-7-7--7-7-7-7--7-7-7-7-----|
D|--7-7-7-7--7-7-7-7--7-7-7-7--7-7-7-7--7-7-7-7--7-7-7-7--7-7-7-7--7-7-7-7-----| 
A|--7-7-7-7--7-7-7-7--7-7-7-7--7-7-7-7--5-5-5-5--5-5-5-5--5-5-5-5--5-5-5-5-----|
E|--5-5-5-5--5-5-5-5--5-5-5-5--5-5-5-5-----------------------------------------|
    CHERRY BOMBS      AND GASOLINE      DEBUTANTS         IN SURGERY

E|---------------------------------------|
B|---------------------------------------|
G|--------------------10-10-10-10--------|
D|--7-7-7-7--7-7-7-7--10-10-10-10--------| 
A|--7-7-7-7--7-7-7-7--8--8--8--8---------|
E|--5-5-5-5--5-5-5-5---------------------|
    AND THE HEADLINE  LEGALIZE THE

[OUTRO]
E|-----------------------------------------------------------------------------|
B|-----------------------------------------------------------------------------|
G|-----------------------------------------------------------------------------|
D|--7-7-7-7-7--3-3-3-3-3-3--7-7-7-7-7--3-3-3-3-3-3--7-7-7-7-7--3-3-3-3---------| 
A|--7-7-7-7-7--3-3-3-3-3-3--7-7-7-7-7--3-3-3-3-3-3--7-7-7-7-7--3-3-3-3---------|
E|--5-5-5-5-5--1-1-1-1-1-1--5-5-5-5-5--1-1-1-1-1-1--5-5-5-5-5--1-1-1-1---------|
    TRUTH

E|-------------------------------------|
B|-------------------------------------|
G|--------------------5-5--------------|
D|--7-7---3-3---5-5---5-5---7----------|
A|--7-7---3-3---5-5---3-3---7----------|
E|--5-5---1-1---3-3---------5----------|


************************************

| x  Dead note
| b  Bend
| /  Slide up

************************************
Suggest correction
Give kudos to tab author, rate the tab!
1 2 3 4 5
comments
print report bad tab
1 comment total.
0 reply
ebarrueta619 10 Sep 28, 2016 11:08 PM

This is an AWESOME tab!!! I actually learned the song from this one only, not like I have to do with other tabs, where I have to look at multiple tabs to learn a new song. Keep it up :)

guest
You may want to rate the tab now too:
select rating
Wanna post a correction for this tab? Suggest correction