Oops, an error
Loading. Please wait.

Rotting Bass Tab

version 1
version 1

Whole song

Interactive

604 views 1 this week
no commentswrite comment
1 2 3 4 5
excellent!
x 1
add to favorites
launch autoscroll
font size
0
reset
guitar tuner
Tab Pro tools
  • play this tab
  • loop segment
  • change instrument
  • show fretboard
  • metronome
Autoscroll
slow
fast
+/-
esc
set tempo
stop
Contributor
Intro & Verses


G---------------------------------------------------------------------------------|
D-------------------5---5---5---5---3---3---3---3-------------------3---3---3---3-|
A---3---3---3---3-----------------------------------3---3---3---3-----------------|
E---------------------------------------------------------------------------------|

( The last set of 3's is played longer than each other group, on the guitar that part
  is an F and changes to an Fm )


Chorus

G---------------------------------------------------------------------------------|
D---6---6---6---6-------------------6---6---6---6---------------------------------|
A-------------------3---3---3---3-------------------3---3---3---3-----------------|
E---------------------------------------------------------------------------------|

( I "think" that the last 3's here are played a bit longer, you can listen to it and
  choose for yourself. )
comments
We did not receive enough feedback on this tab! Please rate:
print report bad tab
1 2 3 4 5
I want to post or [tab]
guest
You may want to rate the tab now too:
select rating
Please do not post tabs as comments. Select "correction" instead!