Oops, an error
Loading. Please wait.

Rusty James bass

version 2
version 2

Whole song

Interactive

140 views 1 this week
no commentswrite comment
1 2 3 4 5
2 more votes to show rating
add to favorites
×
Save as Personal and add changes to this tab that will be seen only by you. Learn more ›
×
You can save this tab as Personal to edit and correct it or add notes. All changes will be seen only by you. Learn more »
launch autoscroll
font size
0
reset
guitar tuner
edit
Autoscroll
slow
fast
+/-
esc
set tempo
stop
-----------------------------------------------------------------------------
                             Rusty James - Green Day
-----------------------------------------------------------------------------

Tabbed by: Country Bass
E-mail: aaron.white8@education.nsw.gov.au

Listen to song for timing, Have Fun

Tuning: Standard

Intro

G|-------------------------------------|
D|-------------------------------------|
A|--7~------7~-------7~-------7~-------|
E|-------------------------------------|

Post-Chorus

G|--------------------------------|
D|--------------------------------|
A|--7-7-7--7--7-7--7-7-7--7--7-7--| x2
E|--------------------------------|

Verse

G|-------------------------------------------------------------------|
D|-------------------------------------------------------------------|
A|--7-7-7-7-7-7-7-7-7-7-7-7-7-7-7-7-6-6-6-6-6-6-6-6-6-6-6-6-6-6-6-6--|
E|-------------------------------------------------------------------|

G|-------------------------------------------------------------------|
D|-------------------------------------------------------------------|
A|-------------------------------------------------------------------|
E|--5-5-5-5-5-5-5-5-5-5-5-5-5-5-5-5-5-5-5-5-5-5-5-5-5-5-5-5-5-5-5-5--|

G|-------------------------------------------------------------------|
D|-------------------------------------------------------------------|
A|--7-7-7-7-7-7-7-7-7-7-7-7-7-7-7-7-4-4-4-4-4-4-4-4-4-4-4-4-4-4-4-4--|
E|-------------------------------------------------------------------|

G|-------------------------------------------------------------------|
D|-------------------------------------------------------------------|
A|--5-5-5-5-5-5-5-5-5-5-5-5-5-5-5-5-7-7-7-7-7-7-7-7-7-7-7-7-7-7-7-7--|
E|-------------------------------------------------------------------|

Pre-Chorus

G|-----------------------------------------------|
D|-----------------------------------------------|
A|-----------------------------------------------| 
E|--2--2-2-2-2-4--4-4-4-4-5--5-5-5-5-7--7-7-7-7--|

G|--------------------------------------------------------|
D|--------------------------------------------------------|
A|--------------------------------------------------------| 
E|--2--2-2-2-2-4--4-4-4-4-5--5-5-5-5-7--7-7-7-7-7-7-7-7-7-|

Chorus

G|-------------------------------------------|
D|-------------------------------------------|
A|--7-7-7-7-7-----------7-7-7-7-7------------|
E|------------7-7-7-7-7-----------7-7-7-7-7--|

G|-------------------------------------------|
D|-------------------------------------------|
A|--4-4-4-4-4--------------------------------|
E|------------4-4-4-4-4-5-5-5-5-5-7-7-7-7-7--|

Bridge Part 1

G|---------------------------------------------------------------------|
D|---------------------------------------------------------------------|
A|----------------------------------7-7-7-7-7--7--7-7-7-7-7-7-7-7-7-7--|
E|--5--55-5-5-5-5-5-5-5-5-5-5-5-5-5------------------------------------|

G|--------------------------------------------------------------------|
D|--------------------------------------------------------------------|
A|--------------------------------------------------------------------|
E|--5--55-5-5-5-5-5-5-5-5-5-5-5-5-5-7-7-7-7-7-7-15-15-15-15-15-15-15--|

Bridge Part 2

G|-------------------------------------------------------------------|
D|-------------------------------------------------------------------|
A|--7-7-7-7-7-7-7-7-7-7-7-7-7-7-7-7-4-4-4-4-4-4-4-4-4-4-4-4-4-4-4-4--|
E|-------------------------------------------------------------------|

G|-------------------------------------------------------------------|
D|-------------------------------------------------------------------|
A|--5-5-5-5-5-5-5-5-5-5-5-5-5-5-5-5-7-7-7-7-7-7-7-7-7-7-7-7-7-7-7-7--|
E|-------------------------------------------------------------------|

Chorus 2

G|-------------------------------------------|
D|-------------------------------------------|
A|---7------------------7--------------------|
E|------------7-7-7-7-7-----------7-7-7-7-7--|

G|-------------------------------------------|
D|-------------------------------------------|
A|--4-4-4-4-4--------------------------------|
E|------------4-4-4-4-4-5-5-5-5-5-7-7-7-7-7--|



Playing Order

Intro
Post-Chorus 
Verse 
Pre-Chorus 
Chorus x2
Post-Chorus 
Verse 
Pre-Chorus 
Chorus x2
Bridge Part 1
Bridge Part 2 x2
Pre-Chorus
Chorus 2 x2
Chorus x2
Post-Chorus x2



Enjoy

| /  slide up
| \  slide down
| h  hammer-on
| p  pull-off
| ~  vibrato
| +  harmonic
| x  Mute note
=============================================================================

            
            
Suggest correction
Creating personal tab
Creating personal tab
You can edit any tab online and save it as your Personal.

You can edit, replace or remove any tab part or add personal notes – all changes will be seen only by you.

Personal tabs can be accessed anytime from any device, even offline.
Learn more »
Give kudos to tab author, rate the tab!
1 2 3 4 5
comments
print report bad tab
guest
You may want to rate the tab now too:
select rating
Wanna post a correction for this tab? Suggest correction