Oops, an error
Loading. Please wait.

Sassafras Roots Bass Tab

version 2
version 2

Whole song

Interactive

9,443 views 27 this week
1 commentread comment
1 2 3 4 5
x 10
add to favorites
launch autoscroll
font size
0
reset
guitar tuner
Autoscroll
slow
fast
+/-
esc
set tempo
stop
Help us to improve Ultimate-Guitar.com Take our survey!
×
Author
Song: Sassafras Roots
Artist: Green Day
Album: Dookie
Tabbed By: Scott Sherman
Tune: E to Eb

Intro
G-------------|
D-------------|
A-5-------7---|
E-----5-------|

Verse-3x
G--------------------------------------------------------------------|
D---------------------75---7h9-91197--------------------75---7h9-7h9-|
A-0-000000-7-5-4-05-55--77----------0-000000-7-5-4-05-55--77---------|
E--------------------------------------------------------------------|

Chorus  %=Pause
G--------------------------------------------------------------------|
D-------------------------------------5h7-5h7------------------------|
A-5-555555---------5-555555---------5-------------7-77777777/127777%-|
E---------0-0000000--------0-0000000---------5-5-5-------------------|

THEN Play Verse-3x, Chorus(without the pause at the end), then…

Verse2
G--------------------------------------------------------------------|
D---------------------75---7h9-91197--------------------75---7h9-7h9-|
A-0-000000-7-5-4-05-55--77----------0-0000007-5-4-505-55--77---------|
E--------------------------------------------------------------------|

Bridge
G-----------------------------------------------------------------|
D---------------------------445577------------------------9-7-6-7-|
A-------45-5442200------45-5------------45-544220077777777--------|
E-2-2222----------2-2222----------2-2222--------------------------|

THEN Play Verse-1x, Chorus-1x(Without pause), then…

Chorus-Outro
G-------------------------------------->
D-----5h7p5h7----------------6h7p69-67->
A-5-55-------------557-777777---------->
E------------5-5577-------------------->

>--------------------------------------------------------|
>-----5h7p5h7----------------667796h7-----5h7p5h7--------|
>-5-55-------------557-777777---------5-55-------------7-|
>------------5-5577------------------------------5-5-5---|
END
Comments or corrections mail me at shermdog17@yahoo.com
Check out my band at www.geocities.com/thecause_ifanything/punk.html
Suggest correction
comments
print report bad tab
1 comment total.
0 reply
Ginga91 31 Jan 05, 2007 02:01 PM

aawesome!

guest
You may want to rate the tab now too:
select rating
Wanna post a correction for this tab? Suggest correction