Oops, an error
Loading. Please wait.

Sassafras Roots Tab

version 4
version 4

Whole song

Interactive

Video

10,674 views 24 this week
1 commentread comment
1 2 3 4 5
excellent!
x 7
add to favorites
launch autoscroll
font size
0
reset
how to read this tab
guitar tuner
Autoscroll
slow
fast
+/-
esc
set tempo
stop
Help us to improve Ultimate-Guitar.com Take our survey!
×
Contributor
Difficulty
novice
Tuning:   1/2 Step Down - (Eb Ab Db Gb Bb eb)




Intro

eb|---------------------------------------------------------------------------|
Bb|--3------------------------------------------------------------------------|
Gb|--2----2-------------------------------------------------------------------|
Db|--0----2----2--------------------------------------------------------------|
Ab|-------0----2--------------------------------------------------------------|
Eb|------------0--------------------------------------------------------------|


eb|-------------------------------2--2-2-2---------0--------------------------|
Bb|--2--2-2-2-0--2--0--2--0----3--3--3-3-3---------0--------------------------|
Gb|--2--2-2-2-2--2--2--2--2--2-2--2--2-2-2------------------------------------|
Db|--2--2-2-2-2--2--2--2--2--2-0--0--0-0-0--2--2-2-2--2-2-2-------(x2)--------|
Ab|--0--0-0-0-0--0--0--0--0--0--------------2--2-2-2--2-2-2-------------------|
Eb|-----------------------------------------0--0-0-0--0-0-0-------------------|





Verse 1  x4

eb|------------------------------------2---------------0----------------------|
Bb|---------------------------------3--3--3-3-3--------0----------------------|
Gb|--2--2-2-2-2-2-2-2--2-2-2--2-2-2-2--2--2-2-2-------------------------------|
Db|--2--2-2-2-2-2-2-2--2-2-2--2-2-2-0--0--0-0-0-2--2-2-2--2-2-2---------------|
Ab|--0--0-0-0-0-0-0-0--0-0-0--0-0-0-------------2--2-2-2--2-2-2---------------|
Eb|---------------------------------------------0--0-0-0--0-0-0---------------|





Chorus

eb|-----2--2-2-2--------0-----------------------------------------------------|
Bb|--3--3--3-3-3--------0-----------------------------------------------------|
Gb|--2--2--2-2-2--------------------------------------------------------------|
Db|--0--0--0-0-0-2--2-2-2--2-2-2----------(x2)--------------------------------|
Ab|--------------2--2-2-2--2-2-2----------------------------------------------|
Eb|--------------0--0-0-0--0-0-0----------------------------------------------|


eb|---------------------------------------------------------------------------|
Bb|--3------------------------------------------------------------------------|
Gb|--2----2-------------------------------------------------------------------|
Db|--0----2----2-2-2-2-2-2-2--2-2-2-2-2-2-2-----------------------------------|
Ab|-------0----2-2-2-2-2-2-2--2-2-2-2-2-2-2-----------------------------------|
Eb|------------0-0-0-0-0-0-0--0-0-0-0-0-0-0-----------------------------------|





Repeat  x2

eb|-------------------------------2--2-2-2---------0--------------------------|
Bb|--2--2-2-2-0--2--0--2--0----3--3--3-3-3---------0--------------------------|
Gb|--2--2-2-2-2--2--2--2--2--2-2--2--2-2-2------------------------------------|
Db|--2--2-2-2-2--2--2--2--2--2-0--0--0-0-0--2--2-2-2--2-2-2-------------------|
Ab|--0--0-0-0-0--0--0--0--0--0--------------2--2-2-2--2-2-2-------------------|
Eb|-----------------------------------------0--0-0-0--0-0-0-------------------|





Verse 2  x4

eb|------------------------------------2---------------0----------------------|
Bb|---------------------------------3--3--3-3-3--------0----------------------|
Gb|--2--2-2-2-2-2-2-2--2-2-2--2-2-2-2--2--2-2-2-------------------------------|
Db|--2--2-2-2-2-2-2-2--2-2-2--2-2-2-0--0--0-0-0-2--2-2-2--2-2-2---------------|
Ab|--0--0-0-0-0-0-0-0--0-0-0--0-0-0-------------2--2-2-2--2-2-2---------------|
Eb|---------------------------------------------0--0-0-0--0-0-0---------------|





Chorus

eb|-----2--2-2-2--------0-----------------------------------------------------|
Bb|--3--3--3-3-3--------0-----------------------------------------------------|
Gb|--2--2--2-2-2--------------------------------------------------------------|
Db|--0--0--0-0-0-2--2-2-2--2-2-2----------(x2)--------------------------------|
Ab|--------------2--2-2-2--2-2-2----------------------------------------------|
Eb|--------------0--0-0-0--0-0-0----------------------------------------------|


eb|---------------------------------------------------------------------------|
Bb|--3------------------------------------------------------------------------|
Gb|--2----2-------------------------------------------------------------------|
Db|--0----2----2-2-2-2-2-2-2--2-2-2-2-2-2-2-----------------------------------|
Ab|-------0----2-2-2-2-2-2-2--2-2-2-2-2-2-2-----------------------------------|
Eb|------------0-0-0-0-0-0-0--0-0-0-0-0-0-0-----------------------------------|





Repeat  x2

eb|-------------------------------2--2-2-2---------0--------------------------|
Bb|--2--2-2-2-0--2--0--2--0----3--3--3-3-3---------0--------------------------|
Gb|--2--2-2-2-2--2--2--2--2--2-2--2--2-2-2------------------------------------|
Db|--2--2-2-2-2--2--2--2--2--2-0--0--0-0-0--2--2-2-2--2-2-2-------(x2)--------|
Ab|--0--0-0-0-0--0--0--0--0--0--------------2--2-2-2--2-2-2-------------------|
Eb|-----------------------------------------0--0-0-0--0-0-0-------------------|





Bridge

eb|---------------------------------------------------------------------------|
Bb|---------------------------------------------------------------------------|
Gb|--------------7--7-7-7-7-7-7-7---------------------------------------------|
Db|--4--4--4-4-4-7--7-7-7-7-7-7-7--------(x3)---------------------------------|
Ab|--4--4--4-4-4-5--5-5-5-5-5-5-5---------------------------------------------|
Eb|--2--2--2-2-2--------------------------------------------------------------|


eb|---------------------------------------------------------------------------|
Bb|---------------------------------------------------------------------------|
Gb|--9-9-9-9-9-9-9-9-9-9-9-9-9-9-9-9------------------------------------------|
Db|--9-9-9-9-9-9-9-9-9-9-9-9-9-9-9-9------------------------------------------|
Ab|--7-7-7-7-7-7-7-7-7-7-7-7-7-7-7-7------------------------------------------|
Eb|---------------------------------------------------------------------------|





Verse 3  x2

eb|------------------------------------2---------------0----------------------|
Bb|---------------------------------3--3--3-3-3--------0----------------------|
Gb|--2--2-2-2-2-2-2-2--2-2-2--2-2-2-2--2--2-2-2-------------------------------|
Db|--2--2-2-2-2-2-2-2--2-2-2--2-2-2-0--0--0-0-0-2--2-2-2--2-2-2---------------|
Ab|--0--0-0-0-0-0-0-0--0-0-0--0-0-0-------------2--2-2-2--2-2-2---------------|
Eb|---------------------------------------------0--0-0-0--0-0-0---------------|





Chorus

eb|-----2--2-2-2--------0-----------------------------------------------------|
Bb|--3--3--3-3-3--------0-----------------------------------------------------|
Gb|--2--2--2-2-2--------------------------------------------------------------|
Db|--0--0--0-0-0-2--2-2-2--2-2-2----------(x2)--------------------------------|
Ab|--------------2--2-2-2--2-2-2----------------------------------------------|
Eb|--------------0--0-0-0--0-0-0----------------------------------------------|


eb|---------------------------------------------------------------------------|
Bb|--3------------------------------------------------------------------------|
Gb|--2----2-------------------------------------------------------------------|
Db|--0----2----2-2-2-2-2-2-2--2-2-2-2-2-2-2-----------------------------------|
Ab|-------0----2-2-2-2-2-2-2--2-2-2-2-2-2-2-----------------------------------|
Eb|------------0-0-0-0-0-0-0--0-0-0-0-0-0-0-----------------------------------|





Outro

eb|---------------------------------------------------------------------------|
Bb|---------------------------------------------------------------------------|
Gb|--7--7-7-7-7-7-----------------9-9-9-9-9-9-9--9-9-9-9-9-9-9----------------|
Db|--7--7-7-7-7-7--7--7-7-7-7-7-7-9-9-9-9-9-9-9--9-9-9-9-9-9-9-------(x2)-----|
Ab|--5--5-5-5-5-5--7--7-7-7-7-7-7-7-7-7-7-7-7-7--7-7-7-7-7-7-7----------------|
Eb|----------------5--5-5-5-5-5-5---------------------------------------------|


eb|---------------------------------------------------------------------------|
Bb|--3------------------------------------------------------------------------|
Gb|--2----2-------------------------------------------------------------------|
Db|--0----2----2--------------------------------------------------------------|
Ab|-------0----2--------------------------------------------------------------|
Eb|------------0--------------------------------------------------------------|
comments
print report bad tab
1 comment total.
0 reply
Willmiester98 56 wrote on August 16 2013, 03:56 pm

i really wanted to play this tab as love this song, and once seeing them play it live, it made me really want to play it even more. Thanks a lot for this tab, it helped a lot. If you want to play it in standard, all you have to do is dont play the open notes and every note which doesnt have a open note in it, just move it down 1 fret.

Cheers anyway.

I want to post or [tab]
guest
You may want to rate the tab now too:
select rating
Please do not post tabs as comments. Select "correction" instead!