Oops, an error
Loading. Please wait.

Say Goodbye Bass Tab

1,597 views 84 this week
no commentswrite comment
1 2 3 4 5
x 3
add to favorites
launch autoscroll
font size
0
reset
guitar tuner
Autoscroll
slow
fast
+/-
esc
set tempo
stop
Help us to improve Ultimate-Guitar.com Take our survey!
×
Author
Difficulty
Tabbed By:Josecar
Album:Revolution Radio
Band:Green day
Song:Say Goodbye
Date:2016
My YT Channel Of Bass Cover:https://www.youtube.com/channel/UCg9O-Rug1KEvY3jmKHY8R-Q
(Write me a coment if you want any bass tab)






[Intro]

G|-------------|
D|-------------|
A|-------------|X3
E|--1-4-4-1-1--|


[Verse]

G|---------------------------------------------------------------------------|
D|---------------------------------------------------------------------------|
A|--------------------6-6-6-6--8-8-8-8---------------------------------------|X3
E|--1-1-1-1--4-4-4-4---------------------------------------------------------|

G|---------------------------------------------------------------------------|
D|---------------------------------------------------------------------------|
A|-----------6-6-6-6--8-8-8-8-8-8-8-8----------------------------------------|
E|--4-4-4-4------------------------------------------------------------------|


[Chorus]

G|-------------------------------------------------------------------------------------------------------|
D|-------------------------------------------------------------------------------------------------------|
A|--------------------3-3-3-3-3-3-3-3---8-8-8-8-8-8-8-8-8-8-8-8---8-4--4-4-4-4-4-4-4-4-------------------|
E|--4-4-4-4-4-4-4-4---------------------------------------------------------------------4-4-4-4-4-4-4-4--|


G|---------------------------------------------------|
D|---------------------------------------------------|
A|--6-6-6-6-6-6-6-6-6-6-6-6-6-6-6-6--4-4-4-4-4-4-4-4-|
E|---------------------------------------------------|


G|-------------------------------------------------------------------------------------------------------|
D|-------------------------------------------------------------------------------------------------------|
A|--------------------3-3-3-3-3-3-3-3---8-8-8-8-8-8-8-8-8-8-8-8---8-4--4-4-4-4-4-4-4-4-------------------|
E|--4-4-4-4-4-4-4-4---------------------------------------------------------------------4-4-4-4-4-4-4-4--|


G|-------------------------------|
D|-------------------------------|
A|--3-3-3-3-3-3-3-3--3-1---------|
E|------------------------4-3----|

[Intro 2]
G|-------------|
D|-------------|
A|-------------|X3
E|--1-1--------|

G|-------------|
D|-------------|
A|-------------|X2
E|--1-4-4-1-1--|


[Chorus 2]
G|-------------------------------------------------------------------------------------------------------|
D|-------------------------------------------------------------------------------------------------------|
A|--------------------3-3-3-3-3-3-3-3---8-8-8-8-8-8-8-8-8-8-8-8---8-4--4-4-4-4-4-4-4-4-------------------|
E|--4-4-4-4-4-4-4-4---------------------------------------------------------------------4-4-4-4-4-4-4-4--|


G|---------------------------------------------------|
D|---------------------------------------------------|
A|--6-6-6-6-6-6-6-6-6-6-6-6-6-6-6-6--4-4-4-4-4-4-4-4-|
E|---------------------------------------------------|


G|-------------------------------------------------------------------------------------------------------|
D|-------------------------------------------------------------------------------------------------------|
A|--------------------3-3-3-3-3-3-3-3---8-8-8-8-8-8-8-8-8-8-8-8---8-4--4-4-4-4-4-4-4-4-------------------|
E|--4-4-4-4-4-4-4-4---------------------------------------------------------------------4-4-4-4-4-4-4-4--|


G|-------------------------------|
D|-------------------------------|
A|--3-3-3-3-3-3-3-3--3-1---------|
E|------------------------4-3----|

[Intro 3]
G|-------------|
D|-------------|
A|-------------|X4
E|--1-1--------|


[Outro]
G|---------------------------------------------------------------------------|
D|---------------------------------------------------------------------------|
A|------------------------------------6-6-6-6-6-6-6-6--8-8-8-8-8-8-8-8-------|X2
E|--1-1-1-1-1-1-1-1--4-4-4-4-4-4-4-4-----------------------------------------|


[Chorus 3]
G|-------------------------------------------------------------------------------------------------------|
D|-------------------------------------------------------------------------------------------------------|
A|--------------------3-3-3-3-3-3-3-3---8-8-8-8-8-8-8-8-8-8-8-8---8-4--4-4-4-4-4-4-4-4-------------------|
E|--4-4-4-4-4-4-4-4---------------------------------------------------------------------4-4-4-4-4-4-4-4--|


G|---------------------------------------------------|
D|---------------------------------------------------|
A|--6-6-6-6-6-6-6-6-6-6-6-6-6-6-6-6--4-4-4-4-4-4-4-4-|
E|---------------------------------------------------|


G|-------------------------------------------------------------------------------------------------------|
D|-------------------------------------------------------------------------------------------------------|
A|--------------------3-3-3-3-3-3-3-3---8-8-8-8-8-8-8-8-8-8-8-8---8-4--4-4-4-4-4-4-4-4-------------------|
E|--4-4-4-4-4-4-4-4---------------------------------------------------------------------4-4-4-4-4-4-4-4--|


G|-------------------------------|
D|-------------------------------|
A|--3-3-3-3-3-3-3-3--3-1---------|
E|------------------------4-3----|


[Intro 4]
G|-------------|
D|-------------|
A|-------------|X4
E|--1-4-4-1-1--|


[final]
G|--------------------------------------------------------------------------------------------------------|
D|--------------------------------------------------------------------------------------------------------|
A|---------------------------4-6---------------------------7-4---------------------------4-6--7-4--4-6----|
E|--1-1-1-1-1-1-1-1-1-1-1-1-------1-1-1-1-1-1-1-1-1-1-1-1-------1-1-1-1-1-1-1-1-1-1-1-1-----------------1-|


Suggest correction
Give kudos to tab author, rate the tab!
1 2 3 4 5
comments
print report bad tab
guest
You may want to rate the tab now too:
select rating
Wanna post a correction for this tab? Suggest correction