Oops, an error
Loading. Please wait.

Say Goodbye Tab

2,599 views 288 this week
no commentswrite comment
1 2 3 4 5
x 13
add to favorites
launch autoscroll
font size
0
reset
how to read this tab
guitar tuner
Autoscroll
slow
fast
+/-
esc
set tempo
stop
Help us to improve Ultimate-Guitar.com Take our survey!
×
SAY GOODBYE

[INTRO]
e|-----------X-X-X--X--X-X-X--X--X-X-X--X--X-----------X-X-X--X--X-X-X--X--X-X-X--X--X--|
B|-----------X-X-X--X--X-X-X--X--X-X-X--X--X-----------X-X-X--X--X-X-X--X--X-X-X--X--X--|
G|-----------X-X-X--X--X-X-X--X--X-X-X--X--X-----------X-X-X--X--X-X-X--X--X-X-X--X--X--|
D|--3-6-3-3--X-X-X--X--X-X-X--X--X-X-X--X--X--3-6-3-3--X-X-X--X--X-X-X--X--X-X-X--X--X--|
A|--3-6-3-3--X-X-X--X--X-X-X--X--X-X-X--X--X--3-6-3-3--X-X-X--X--X-X-X--X--X-X-X--X--X--|
E|--1-4-1-1--X-X-X--X--X-X-X--X--X-X-X--X--X--1-4-1-1--X-X-X--X--X-X-X--X--X-X-X--X--X--|
        SAY GOODBYE TO THE ONES THAT WE LOVE           SAY GOODBYE TO THE ONES WE LOVE

e|-----------X-X-X--X--X-X-X--X--X-X-X--X--X------------X-X----X---------X---X-X---|
B|-----------X-X-X--X--X-X-X--X--X-X-X--X--X------------X-X----X---------X---X-X---|
G|-----------X-X-X--X--X-X-X--X--X-X-X--X--X------------X-X----X---------X---X-X---|
D|--3-6-3-3--X-X-X--X--X-X-X--X--X-X-X--X--X------------X-X----X---------X---X-X---|
A|--3-6-3-3--X-X-X--X--X-X-X--X--X-X-X--X--X------------X-X----X---------X---X-X---|
E|--1-4-1-1--X-X-X--X--X-X-X--X--X-X-X--X--X------------X-X----X---------X---X-X---|
      SAY GOODBYE TO THE ONE THAT WE LOVE    SAY GOODBYE TO THE ONES THAT WE LOVE

[VERSE]
e|-----------------------------------------|------------------------------------------|
B|-----------------------------------------|------------------------------------------|
G|---------------------8-8-----------------|---------------------8-8------------------|
D|--3-3-----6-6--------8-8----------3-3-3--|--3-3-----6-6--------8-8----------3-3-3---|
A|--3-3-----6-6--------6-6----------3-3-3--|--3-3-----6-6--------6-6----------3-3-3---|
E|--1-1-----4-4---------------------1-1-1--|--1-1-----4-4---------------------1-1-1---|
    SAY GOODBYE TO THE ONES THAT WE LOVE      SAY GOODBYE TO THE ONES THAT WE LOVE 

e|-----------------------------------------|------------------------------------------|
B|-----------------------------------------|------------------------------------------|
G|---------------------8-8-----------------|----------8-8--------10-10-10---10-10-10--|
D|--3-3-----6-6--------8-8----------3-3-3--|--6-6-----8-8--------10-10-10---10-10-10--|
A|--3-3-----6-6--------6-6----------3-3-3--|--6-6-----6-6--------8--8--8----8--8--8---|
E|--1-1-----4-4---------------------1-1-1--|--4-4-------------------------------------|
    SAY GOODBYE TO THE ONES THAT WE LOVE      SAY GOODBYE TO THE ONES THAT WE LOVE


[CHORUS]
e|---------------------------------------------------------------------------------------|
B|---------------------------------------------------------------------------------------|
G|--------------------5-5-5-5--5-5-5-5--10-10-10-10--10-10-10-10--10-10-10-10--10-10--8--|
D|--6-6-6-6--6-6-6-6--5-5-5-5--5-5-5-5--10-10-10-10--10-10-10-10--10-10-10-10--10-10--8--|
A|--6-6-6-6--6-6-6-6--3-3-3-3--3-3-3-3--8--8--8--8---8--8--8--8---8--8--8--8---8--8---6--|
E|--4-4-4-4--4-4-4-4---------------------------------------------------------------------|
    VIOLENCE ON THE   RISE LIKE A       BULLET IN THE SKY

e|---------------------------------------------------------------------------------|
B|---------------------------------------------------------------------------------|
G|--6-6-6-6--6-6-6-6--------------------8-8-8-8--8-8-8-8--8-8-8-8--8-8-------------|
D|--6-6-6-6--6-6-6-6--6-6-6-6--6-6-6-6--8-8-8-8--8-8-8-8--8-8-8-8--8-8---6---------|
A|--4-4-4-4--4-4-4-4--6-6-6-6--6-6-6-6--6-6-6-6--6-6-6-6--6-6-6-6--6-6---6---------|
E|--------------------4-4-4-4--4-4-4-4-----------------------------------4---------|
    OH LORD HAVE      MERCY ON MY       SOUL

e|---------------------------------------------------------------------------------|
B|---------------------------------------------------------------------------------|
G|--6-6-6-6--6-6-6-6--------------------5-5-5-5--5-5-5-5--10-10--8-8---------------|
D|--6-6-6-6--6-6-6-6--6-6-6-6--6-6-6-6--5-5-5-5--5-5-5-5--10-10--8-8---------------|
A|--4-4-4-4--4-4-4-4--6-6-6-6--6-6-6-6--3-3-3-3--3-3-3-3--8--8---6-6---------------|
E|--------------------4-4-4-4--4-4-4-4---------------------------------------------|
    KINDRED SPIRIT    SING FOR THE      SICK AND SUFFERING 

e|--------------------------------------------------------------------------------|
B|--------------------------------------------------------------------------------|
G|--6-6-6-6--6-6-6-6--------------------5-5-5-5--5-5-5-5---5----3-----------------|
D|--6-6-6-6--6-6-6-6--6-6-6-6--6-6-6-6--5-5-5-5--5-5-5-5---5----3--6---5----------|
A|--4-4-4-4--4-4-4-4--6-6-6-6--6-6-6-6--3-3-3-3--3-3-3-3---3----1--6---5----------|
E|--------------------4-4-4-4--4-4-4-4-----------------------------4---3----------|
    THE CITY          OF DAMAGE         CONTROL            THIS IS HOW WE

e|-------X-X-X--X--X-X-X------------------X-X-X--X--X-X-X--X-----------|
B|-------X-X-X--X--X-X-X------------------X-X-X--X--X-X-X--X-----------|
G|-------X-X-X--X--X-X-X------------------X-X-X--X--X-X-X--X-----------|
D|--3-3--X-X-X--X--X-X-X---------3-6-3-3--X-X-X--X--X-X-X--X-----------|
A|--3-3--X-X-X--X--X-X-X---------3-6-3-3--X-X-X--X--X-X-X--X----6-3----|
E|--1-1--X-X-X--X--X-X-X--1/4-1--1-4-1-1--X-X-X--X--X-X-X--X--4--------|

[VERSE 2]
e|-----------X-X-X--X--X-X-X--X--X-X-X--X--X-----------X-X-X--X--X-X-X--X--X-X-X--X--X--|
B|-----------X-X-X--X--X-X-X--X--X-X-X--X--X-----------X-X-X--X--X-X-X--X--X-X-X--X--X--|
G|-----------X-X-X--X--X-X-X--X--X-X-X--X--X-----------X-X-X--X--X-X-X--X--X-X-X--X--X--|
D|--3-6-3-3--X-X-X--X--X-X-X--X--X-X-X--X--X--3-6-3-3--X-X-X--X--X-X-X--X--X-X-X--X--X--|
A|--3-6-3-3--X-X-X--X--X-X-X--X--X-X-X--X--X--3-6-3-3--X-X-X--X--X-X-X--X--X-X-X--X--X--|
E|--1-4-1-1--X-X-X--X--X-X-X--X--X-X-X--X--X--1-4-1-1--X-X-X--X--X-X-X--X--X-X-X--X--X--|
             SAY HELLO TO THE COPS ON PATROL           SAY HELLO TO THE COPS ON PATROL

e|-----------X-X-X--X--X-X-X--X--X-X-X--X--X---------------------------------------|
B|-----------X-X-X--X--X-X-X--X--X-X-X--X--X---------------------------------------|
G|-----------X-X-X--X--X-X-X--X--X-X-X--X--X---------------------------------------|
D|--3-6-3-3--X-X-X--X--X-X-X--X--X-X-X--X--X---------------------------------------|
A|--3-6-3-3--X-X-X--X--X-X-X--X--X-X-X--X--X------------6-3------------------------|
E|--1-4-1-1--X-X-X--X--X-X-X--X--X-X-X--X--X-----1/4-1-----------------------------|
             SAY HELLO TO THE COPS ON PATROL     SAY HELLO TO THE ONES IN CONTROL

[CHORUS]
e|---------------------------------------------------------------------------------------|
B|---------------------------------------------------------------------------------------|
G|--------------------5-5-5-5--5-5-5-5--10-10-10-10--10-10-10-10--10-10-10-10--10-10--8--|
D|--6-6-6-6--6-6-6-6--5-5-5-5--5-5-5-5--10-10-10-10--10-10-10-10--10-10-10-10--10-10--8--|
A|--6-6-6-6--6-6-6-6--3-3-3-3--3-3-3-3--8--8--8--8---8--8--8--8---8--8--8--8---8--8---6--|
E|--4-4-4-4--4-4-4-4---------------------------------------------------------------------|
 TEACH YOUR CHILDREN  WELL FROM THE     BOTTOM OF THE WELL

e|---------------------------------------------------------------------------------|
B|---------------------------------------------------------------------------------|
G|--6-6-6-6--6-6-6-6--------------------8-8-8-8--8-8-8-8--8-8-8-8--8-8-------------|
D|--6-6-6-6--6-6-6-6--6-6-6-6--6-6-6-6--8-8-8-8--8-8-8-8--8-8-8-8--8-8---6---------|
A|--4-4-4-4--4-4-4-4--6-6-6-6--6-6-6-6--6-6-6-6--6-6-6-6--6-6-6-6--6-6---6---------|
E|--------------------4-4-4-4--4-4-4-4-----------------------------------4---------|
    OH LORD HAVE      MERCY ON MY       SOUL

e|-----------------------------------------------------------------------------------|
B|-----------------------------------------------------------------------------------|
G|--6-6-6-6--6-6-6-6----------------------5-5-5-5--5-5-5-5--10-10--8-8---------------|
D|--6-6-6-6--6-6-6-6----6-6-6-6--6-6-6-6--5-5-5-5--5-5-5-5--10-10--8-8---------------|
A|--4-4-4-4--4-4-4-4----6-6-6-6--6-6-6-6--3-3-3-3--3-3-3-3--8--8---6-6---------------|
E|----------------------4-4-4-4--4-4-4-4---------------------------------------------|
    HEAR THE CHILDREN   SING FOR THE      SICK AND SUFFERING 

e|---------------------------------------------------------------------------------|
B|---------------------------------------------------------------------------------|
G|--6-6-6-6--6-6-6-6--------------------5-5-5-5--5-5-5-5---5-----3-----------------|
D|--6-6-6-6--6-6-6-6--6-6-6-6--6-6-6-6--5-5-5-5--5-5-5-5---5-----3--6---5----------|
A|--4-4-4-4--4-4-4-4--6-6-6-6--6-6-6-6--3-3-3-3--3-3-3-3---3-----1--6---5----------|
E|--------------------4-4-4-4--4-4-4-4------------------------------4---3----------|
    THE CITY          OF DAMAGE         CONTROL             THIS IS HOW WE  

e|-------X-X-X--X--X-X-X------------------X-X-X--X--X-X-X--X-----------|
B|-------X-X-X--X--X-X-X------------------X-X-X--X--X-X-X--X-----------|
G|-------X-X-X--X--X-X-X------------------X-X-X--X--X-X-X--X-----------|
D|--3-3--X-X-X--X--X-X-X---------3-6-3-3--X-X-X--X--X-X-X--X-----------|
A|--3-3--X-X-X--X--X-X-X---------3-6-3-3--X-X-X--X--X-X-X--X--4/6-3----|
E|--1-1--X-X-X--X--X-X-X--1/4-1--1-4-1-1--X-X-X--X--X-X-X--X-----------|

e|-----------X-X-X--X--X-X-X-------------------------------------------|
B|-----------X-X-X--X--X-X-X-------------------------------------------|
G|-----------X-X-X--X--X-X-X-------------------------------------------|
D|--3-6-3-3--X-X-X--X--X-X-X---------3-6-3-3---------------------------|
A|--3-6-3-3--X-X-X--X--X-X-X---------3-6-3-3---------------------------|
E|--1-4-1-1--X-X-X--X--X-X-X--1/4/1--1-4-1-1---------------------------|

[SOLO]
e|-------------------------------------------------------------------------X------|
B|-------------------------------------------------------------------------X------|
G|--10-10-10-10-10--5--8-8-8-8--8-8-8---15-13-15-17-15-13-10--10-10-10-10--X------|
D|--X--X--X--X--X---X--X-X-X-X--X-X-X---X--X--X--X--X--X--X---x--X--X--X---X------|
A|--8--8--8--8--8---3--6-6-6-6--6-6-6---13-11-13-15-13-11-8---8--8--8--8---X------|
E|-------------------------------------------------------------------------X------|

e|--------------------------------------------------------------------|
B|--------------------------------------------------------------------|
G|--10-10-10-10-10--5--8-8-8-8--8-8-8---15-15-15-15--15-15--17--------|
D|--X--X--X--X--X---X--X-X-X-X--X-X-X---X--X--X--X---X--X---X---------|
A|--8--8--8--8--8---3--6-6-6-6--6-6-6---13-13-13-13--13-13--15--------|
E|--------------------------------------------------------------------|

e|-----------------------------------------------------|
B|-----------------------------------------------------|
G|--15-15-15-15--15-15-15-15--15-15-15-15--------------|
D|--X--X--X--X---X--X--X--X---X--X--X--X---------------|
A|--13-13-13-13--13-13-13-13--13-13-13-13--------------|
E|-----------------------------------------------------| 

[CHORUS]
e|---------------------------------------------------------------------------------------|
B|---------------------------------------------------------------------------------------|
G|--------------------5-5-5-5--5-5-5-5--10-10-10-10--10-10-10-10--10-10-10-10--10-10--8--|
D|--6-6-6-6--6-6-6-6--5-5-5-5--5-5-5-5--10-10-10-10--10-10-10-10--10-10-10-10--10-10--8--|
A|--6-6-6-6--6-6-6-6--3-3-3-3--3-3-3-3--8--8--8--8---8--8--8--8---8--8--8--8---8--8---6--|
E|--4-4-4-4--4-4-4-4---------------------------------------------------------------------|
    VIOLENCE ON THE   RISE LIKE A       BULLET IN THE SKY

e|---------------------------------------------------------------------------------|
B|---------------------------------------------------------------------------------|
G|--6-6-6-6--6-6-6-6--------------------8-8-8-8--8-8-8-8--8-8-8-8--8-8-------------|
D|--6-6-6-6--6-6-6-6--6-6-6-6--6-6-6-6--8-8-8-8--8-8-8-8--8-8-8-8--8-8---6---------|
A|--4-4-4-4--4-4-4-4--6-6-6-6--6-6-6-6--6-6-6-6--6-6-6-6--6-6-6-6--6-6---6---------|
E|--------------------4-4-4-4--4-4-4-4-----------------------------------4---------|
    OH LORD HAVE      MERCY ON MY       SOUL   

e|---------------------------------------------------------------------------------|
B|---------------------------------------------------------------------------------|
G|--6-6-6-6--6-6-6-6--------------------5-5-5-5--5-5-5-5--10-10--8-8---------------|
D|--6-6-6-6--6-6-6-6--6-6-6-6--6-6-6-6--5-5-5-5--5-5-5-5--10-10--8-8---------------|
A|--4-4-4-4--4-4-4-4--6-6-6-6--6-6-6-6--3-3-3-3--3-3-3-3--8--8---6-6---------------|
E|--------------------4-4-4-4--4-4-4-4---------------------------------------------|
    KINDRED SPIRIT    SING FOR THE      SICK AND SUFFERING 

e|---------------------------------------------------------------------------------|
B|---------------------------------------------------------------------------------|
G|--6-6-6-6--6-6-6-6--------------------5-5-5-5--5-5-5-5---5-----3-----------------|
D|--6-6-6-6--6-6-6-6--6-6-6-6--6-6-6-6--5-5-5-5--5-5-5-5---5-----3--6---5----------|
A|--4-4-4-4--4-4-4-4--6-6-6-6--6-6-6-6--3-3-3-3--3-3-3-3---3-----1--6---5----------|
E|--------------------4-4-4-4--4-4-4-4------------------------------4---3----------|
    THE CITY          OF DAMAGE         CONTROL             THIS IS HOW WE

e|-------X-X-X---X-X-X---X-X-X--X-X---------------X-X-X---X-X-X---X-X-X--X-X--------|
B|-------X-X-X---X-X-X---X-X-X--X-X---------------X-X-X---X-X-X---X-X-X--X-X--------|
G|-------X-X-X---X-X-X---X-X-X--X-X---------------X-X-X---X-X-X---X-X-X--X-X--------|
D|--3-3--X-X-X---X-X-X---X-X-X--X-X------3-6-3-3--X-X-X---X-X-X---X-X-X--X-X--------|
A|--3-3--X-X-X---X-X-X---X-X-X--X-X------3-6-3-3--X-X-X---X-X-X---X-X-X--X-X--------|
E|--1-1--X-X-X---X-X-X---X-X-X--X-X------1-4-1-1--X-X-X---X-X-X---X-X-X--X-X--------|
   SAY A PRAYER FOR THE ONES WE LOVE     SAY A PRAYER FOR THE ONES WE LOVE

e|-----------X-X-X---X-X-X---X-X-X--X-X-----------X-X-X---X-X-X---X-X-X--X-X----------|
B|-----------X-X-X---X-X-X---X-X-X--X-X-----------X-X-X---X-X-X---X-X-X--X-X----------|
G|-----------X-X-X---X-X-X---X-X-X--X-X-----------X-X-X---X-X-X---X-X-X--X-X----------|
D|--3-6-3-3--X-X-X---X-X-X---X-X-X--X-X--3-6-3-3--X-X-X---X-X-X---X-X-X--X-X----------|
A|--3-6-3-3--X-X-X---X-X-X---X-X-X--X-X--3-6-3-3--X-X-X---X-X-X---X-X-X--X-X----------|
E|--1-4-1-1--X-X-X---X-X-X---X-X-X--X-X--1-4-1-1--X-X-X---X-X-X---X-X-X--X-X----------|
    SAY A PRAYER FOR THE ONES THAT WE LOVE        SAY GOODBYE TO THE ONES THAT WE LOVE
                                                  THIS IS HOW WE
 
e|-----------X-X-X---X-X-X---X-X-X--X-X-----------X-X-X---X-X-X---X-X-X--X-X--------|
B|-----------X-X-X---X-X-X---X-X-X--X-X-----------X-X-X---X-X-X---X-X-X--X-X--------|
G|-----------X-X-X---X-X-X---X-X-X--X-X-----------X-X-X---X-X-X---X-X-X--X-X--------|
D|--3-6-3-3--X-X-X---X-X-X---X-X-X--X-X--3-6-3-3--X-X-X---X-X-X---X-X-X--X-X--------|
A|--3-6-3-3--X-X-X---X-X-X---X-X-X--X-X--3-6-3-3--X-X-X---X-X-X---X-X-X--X-X--------|
E|--1-4-1-1--X-X-X---X-X-X---X-X-X--X-X--1-4-1-1--X-X-X---X-X-X---X-X-X--X-X--------|
      SAY A PRAYER FOR THE ONES WE LOVE    SAY A PRAYER FOR THE ONES WE LOVE

e|-----------X-X-X---X-X-X---X-X-X--X-X----------------------------------------|
B|-----------X-X-X---X-X-X---X-X-X--X-X----------------------------------------|
G|-----------X-X-X---X-X-X---X-X-X--X-X----------------------------------------|
D|--3-6-3-3--X-X-X---X-X-X---X-X-X--X-X----3-6-3-3-----------------------------|
A|--3-6-3-3--X-X-X---X-X-X---X-X-X--X-X----3-6-3-3-----------------------------|
E|--1-4-1-1--X-X-X---X-X-X---X-X-X--X-X----1-4-1-1-----------------------------|
 SAY A PRAYER FOR THE ONES THAT WE LOVE    SAY GOODBYE TO THE ONES THAT WE LOVE
                                           THIS IS HOW WE

[OUTRO]
e|-----------------------------------------------------------------------|
B|-----------------------------------------------------------------------|
G|-----------------------------------------------------------------------|
D|--3-3-3-3--3-3-3-3--3-3-3-3--6/8---3-3-3-3--3-3-3-3--3-3-3-3--9/8------|
A|--3-3-3-3--3-3-3-3--3-3-3-3--6/8---3-3-3-3--3-3-3-3--3-3-3-3--9/8------|
E|--1-1-1-1--1-1-1-1--1-1-1-1--4/6---1-1-1-1--1-1-1-1--1-1-1-1--7/6------|

e|--------------------------------------------------------|
B|--------------------------------------------------------|
G|--------------------------------------------------------|
D|--3-3-3-3--3-3-3-3--3-3-3-3--6/8--9/8--6/8--3-----------|
A|--3-3-3-3--3-3-3-3--3-3-3-3--6/8--9/8--6/8--3-----------|
E|--1-1-1-1--1-1-1-1--1-1-1-1--4/6--7/6--4/6--1-----------|
Suggest correction
comments
print report bad tab
guest
You may want to rate the tab now too:
select rating
Wanna post a correction for this tab? Suggest correction