Oops, an error
Loading. Please wait.

Scattered Tab

version 1
version 1

Whole song

Interactive

24,980 views 60 this week
7 commentsread comments
1 2 3 4 5
excellent!
x 23
add to favorites
launch autoscroll
font size
0
reset
how to read this tab
guitar tuner
Tab Pro tools
  • play this tab
  • loop segment
  • change instrument
  • show fretboard
  • metronome
×
Best way to learn
"Scattered"
Autoscroll
slow
fast
+/-
esc
set tempo
stop
SCATTERED
GREEN DAY
Tabbed by: KoRny Freak (kornytabs@hotmail.com)

intro/bridge
|---------------------------|-------------|
|---------------------------|-------------|
|-4--4--4-4-4-4-------------|-4-4-4-4-4-4-|
|-4--4--4-4-4-4-7-6-2-2-2-2-|-4-4-4-4-4-4-|
|-2--2--2-2-2-2-7-6-2-2-2-2-|-2-2-2-2-2-2-|
|---------------5-4-0-0-0-0-|-------------|

verse
|-----------------------------------------------------------------|
|-----------------------------------------------------------------|
|-----------------------------------------------------------------|
|-2-2-2-2-2-2-2-2-6-6-6-6-6-6-6-6-7-7-7-7-7-7-7-7-9-9-9-9-9-9-9-9-|
|-2-2-2-2-2-2-2-2-6-6-6-6-6-6-6-6-7-7-7-7-7-7-7-7-9-9-9-9-9-9-9-9-|
|-0-0-0-0-0-0-0-0-4-4-4-4-4-4-4-4-5-5-5-5-5-5-5-5-7-7-7-7-7-7-7-7-|

chorus
|-------------------------------------------------------------
|-------------------------------------------------------------
|-6-6-6-6-6-6-9-9-9-9-9-9-------------------------------------
|-6-6-6-6-6-6-9-9-9-9-9-9-9-9-9-9-9-9-7-7-7-7-7-7-4-4-4-4-4-4-
|-4-4-4-4-4-4-7-7-7-7-7-7-9-9-9-9-9-9-7-7-7-7-7-7-4-4-4-4-4-4-
|-------------------------7-7-7-7-7-7-5-5-5-5-5-5-2-2-2-2-2-2-

----------------------------------|
----------------------------------|
-------------9--9-9--9--9-9-9-9-9-|
-7-7-7-7-7-7-9--9-9--9--9-9-9-9-9-|
-7-7-7-7-7-7-7--7-7--7--7-7-7-7-7-|
-5-5-5-5-5-5----------------------|

If you have any questions or comments, email me at 
silverchair_surfing_bird@hotmail.com


_________________________________________________________________________
Get Your Private, Free E-mail from MSN Hotmail at http://www.hotmail.com.



comments
print report bad tab
7 comments total. Showing first comments.
0 reply
airhead4855` wrote on December 22 2001, 12:00 am

Perfect!

0 reply
Droquen wrote on June 22 2004, 12:00 am

nice tab man, but you should try and simplify the chords, like you have an E chord on the 6th string and 5th string, make them all be around the same area, makes things easier for beginners.

0 reply
BlinkMM182 wrote on March 30 2005, 12:00 am

The intro is wrong...it should look like below...

Intro Riff
B5 A5 G#5 E5 B5 A5 G#5 E5
E|-----------------|-----------------|-----------------|-----------------|G
B|-----------------|-----------------|-----------------|-----------------|U
G|-----------------|-----------------|-----------------|-----------------|I
D|-9---9---9-9-9-7-|---6-2-----2-2-2-|-9---9---9-9-9-7-|---6-2-----2-2-2-|T
A|-9---9---9-9-9-7-|---6-2-----2-2-2-|-9---9---9-9-9-7-|---6-2-----2-2-2-|A
E|-7---7---7-7-7-5-|---4-0-----0-0-0-|-7---7---7-7-7-5-|---4-0-----0-0-0-|R

B5 A5 G#5 E5 B5
E|-----------------|-----------------|-----------------|-----------------|G
B|-----------------|-----------------|-----------------|-----------------|U
G|-----------------|-----------------|-----------------|-----------------|I
D|-9---9---9-9-9-7-|---6-2-----2-2-2-|-9---9---9-9-9-9-|-9-9-9-9-9-9-9-9-|T
A|-9---9---9-9-9-7-|---6-2-----2-2-2-|-9---9---9-9-9-9-|-9-9-9-9-9-9-9-9-|A
E|-7---7---7-7-7-5-|---4-0-----0-0-0-|-7---7---7-7-7-7-|-7-7-7-7-7-7-7-7-|R

I want to post or [tab]
guest
You may want to rate the tab now too:
select rating
Please do not post tabs as comments. Select "correction" instead!