Oops, an error
Loading. Please wait.

Scattered Tab

version 2
version 2

Whole song

Interactive

1,570 views 9 this week
2 commentsread comments
1 2 3 4 5
worth learning
x 5
add to favorites
launch autoscroll
font size
0
reset
how to read this tab
guitar tuner
Tab Pro tools
  • play this tab
  • loop segment
  • change instrument
  • show fretboard
  • metronome
Autoscroll
slow
fast
+/-
esc
set tempo
stop
-----------------------------------------------------------------------------
                             Scattered - Green DAY
-----------------------------------------------------------------------------
Tabbed by:NOFXMIKE
Email:NO
Tuning:Standard
Intro(clean tone-fade in)
e|---2---------------------------------------------|
B|---2---------------------------------------------|
G|---4---------------------------------------------|
D|---4---------------------------------------------|
A|---x---------------------------------------------|
E|---2---------------------------------------------|
     T
 Rhythm figure 1.
e|------------------------------------------------|
B|------------------------------------------------|
G|------------------------------------------------|
D|----9----9---9-9-9-7-----2----------------------|
A|----9----9---9-9-9-7-----2----------------------|
E|----7----7---7-7-7-5-4-0-0----------------------|

  Rhythm fill 1
e|----------------------------------------------------|
B|----------------------------------------------------|
G|----------------------------------------------------|
D|----9----9---9-9-9-7-9-9-9--------------------------|
A|----9----9---9-9-9-7-9-9-9--------------------------|
E|----7----7---7-7-7-5-7-7-7--------------------------|

1)Well I've got some scattered pictures lying on my bedroom floor
e|----------------------------------------------------------------|
B|----9-----------------------------------------------------------|
G|----9--------------------------------5--------------------------|
D|----9--------------------------------6--------------------------|
A|----7--------------------------------6--------------------------|
E|-------------------------------------4--------------------------|

1)Reminds me of the times we shared--Makes me wish that you were here
e|-------------------------------------------------------------------|
B|-------------------------------------------------------------------|
G|--6-------------------------------8--------------------------------|
D|--7-------------------------------9--------------------------------|
A|--7-------------------------------9--------------------------------|
E|--5-------------------------------7--------------------------------|

)CUz now it seems i've forgotten my purpose in this life<----CODA!!!
e|--------------------------------------------------------|
B|--9-----------------------------------------------------|
G|--9--------------------------------5--------------------|
D|--9--------------------------------6--------------------|
A|--7--------------------------------6--------------------|
E|-----------------------------------4--------------------|

1) well all the songs have been erased--guess i've learned from my mistakes
e|------------------------------------------------------------------------|
B|------------------------------------------------------------------------|
G|-6----------------------------------8-----------------------------------|
D|-7----------------------------------9-----------------------------------|
A|-7----------------------------------9-----------=-----------------------|
E|-5----------------------------------7-----------------------------------|

CHorus:
     1)Open the past and present       now and we are there
     2)Open the past and present       and the future too
e|----------------------------------------------------------------|
B|----------------------------------------------------------------|
G|---6---6---6-8-9----9-----9-9-9-------8---8---8-8-6-6------6-6-6|
D|---6---6---6-8-9----9-----9-9-9-------9---9---9-9-7-7------7-7-7|
A|---4---4---4-6-7----7-----7-7-7-------9---9---9-9-7-7------7-7-7|
E|--------------------------------------7---7---7-7-5-5------5-5-5|

1)story to tell and I am listening
2)Its all i've got and i'm giving it to you(2nd time omit muting of strings)
e|--------------------------------------------------|
B|-------------------------9-X-X-9-9-X-9-X-9-X-9-9-9|
G|-------------------------9-X-X-9-9-X-9-X-9-X-9-9-9|
D|--4---4-6-7--7---7-7-7---9-X-X-9-9-X-9-X-9-X-9-9-9|
A|--4---4-6-7--7---7-7-7---7-X-X-7-7-X-7-X-7-X-7-7-7|
E|--2---2-4-5--5---5-5-5----------------------------|

Bridge: Play rhythm figure 1
"And you've got no place to go"
"Will you be alright? be alright?"
then play rhythm fill 1
Bass only with guitar feedback in the pitch of G#
Repeat first verse

Bass (E)                     (G#)feedback comes in during verse
(A)
    well I've got some scattered pictures lying on my bedroom floor  Reminds
e|-------------------------------------------------------------------------|
B|-------------------------------------------------------------------------|
G|-------------------------------------------------------------------------|
D|-------------------------------------------------------------------------|
A|-------------------------------------------------------------------------|
E|---------------------------(4)-------------------------------------------|

                        B(guitar back in)
   of the times we shared   Makes me wish that you were here  (DS al coda)
e|-------------------------------------------------------|
B|-------------------------------------------------------|
G|-----------------------8----------8----8-8---8-8--8-8--|
D|-----------------------9----------9----9-9---9-9--9-9--|
A|-----------------------9----------9----9-9---9-9--9-9--|
E|-----------------------7----------7----7-7---7-7--7-7--|

 Finish the verse out once, sing the chorus once and then repeat this---
 Its all I've got and I'm giving it to you(X3)   (Last notes played)
e|----------------------------------------------(0)-----------|
B|----------------------------------------------(0)-----------|
G|----------------------------------------------(1)-----------|
D|-4--4-6-7-----7----7--7-7-7---------7\2---------------------|
A|-4--4-6-7-----7----7--7-7-7---------7\2---------------------|
E|-2--2-4-5-----5----5--5-5-5---------5\0---------------------|
There is obviously more verses but you're here for the tab--not lyrics.
| /  slide up
| \  slide down
| h  hammer-on
| p  pull-off
| ~  vibrato
| +  harmonic
| X  rhythm strum
comments
print report bad tab
2 comments total.
0 reply
jjrawson wrote on November 3 2006, 02:54 pm

the ending is wrong matey

+1 reply
Suburban Jimmy wrote on June 7 2008, 11:42 am

wrong.. and youmade some parts more complicated than they are..

I want to post or [tab]
guest
You may want to rate the tab now too:
select rating
Please do not post tabs as comments. Select "correction" instead!