Oops, an error
Loading. Please wait.

Scattered Tab

version 3
version 3

Whole song

Interactive

3,900 views 6 this week
no commentswrite comment
1 2 3 4 5
excellent!
x 9
add to favorites
launch autoscroll
font size
0
reset
how to read this tab
guitar tuner
Autoscroll
slow
fast
+/-
esc
set tempo
stop
Help us to improve Ultimate-Guitar.com Take our survey!
×
Difficulty
novice
-------------------------------------------------------------------------------
                             Scattered - Green Day
-------------------------------------------------------------------------------
Tabbed by: Messupp

If you want to make corrections - please comment. This is also my first tab. 
If you can rate tabs, please do.

Tuning: EADGBE
 
Intro + Bridge                  x3                                         x1
e|---------------------------------|-------------------------------------------|
B|---------------------------------|-------------------------------------------|
G|---------------------------------|-------------------------------------------|
D|--9-9--9-9-9--7--2-2--2-2-2-2----|--9-9--9--7--9-9-9-9-9-9-7-9-9-9-9-9-9-----|
A|--9-9--9-9-9--7--2-2--2-2-2-2----|--9-9--9--7--9-9-9-9-9-9-7-9-9-9-9-9-9-----|
E|--7-7--7-7-7--5--0-0--0-0-0-0----|--7-7--7--5--7-7-7-7-7-7-5-7-7-7-7-7-7-----|

Verse
e|---------------------------------------------------------------------------|
B|---------------------------------------------------------------------------|
G|-----x12-----x12-----x12----x12--------------------------------------------|
D|---2-------6-------7------9------------------------------------------------|
A|---2-------6-------7------9------------------------------------------------|
E|---0-------4-------5------7------------------------------------------------|

Chorus
e|---------------------------------------------------------------------------|
B|---------x6----x6----------------------------------------------------------|
G|-----6-------9-------x6-----x6-----x6------x6----9-9--9-9--9-9-9-9---------|
D|-----6-------9-----9-----7------4------7---------9-9--9-9--9-9-9-9---------|
A|-----4-------7-----9-----7------4------7---------7-7--7-7--7-7-7-7---------|
E|-------------------7-----5------2------5-----------------------------------|

Ending (2:43)
e|-------------------------------------------------------------------------------------|
B|-------------------------------------------------------------------------------------|
G|-------------------9-9-9-9-7-9-9-9-9--------------------9-9-9-7-9-9-9-7-9-9-9-7-9----|
D|--2-2-2-2--7-7-7---9-9-9-9-7-9-9-9-9----2-2-2-2--7-7-7--9-9-9-7-9-9-9-7-9-9-9-7-9----|
A|--2-2-2-2--7-7-7---7-7-7-7-5-7-7-7-7----2-2-2-2--7-7-7--7-7-7-5-7-7-7-5-7-7-7-5-7----|
E|--0-0-0-0--5-5-5------------------------0-0-0-0--5-5-5-------------------------------|


************************************

| /   slide up
| \   slide down
| h   hammer-on
| p   pull-off
| ~   vibrato
| +   harmonic
| x   Mute note
| b   Bend
| pb  Pre-bend
| br  Bend release
| pbr Pre-bend release
| brb Bend release bend

************************************
Suggest correction
comments
print report bad tab
guest
You may want to rate the tab now too:
select rating
Please do not post tabs as comments. Select "correction" instead!