Oops, an error
Loading. Please wait.

See The Light Tab

version 2
version 2

Whole song

Interactive

3,605 views 1 this week
no commentswrite comment
1 2 3 4 5
accurate
x 3
add to favorites
launch autoscroll
font size
0
reset
how to read this tab
guitar tuner
Tab Pro tools
  • play this tab
  • loop segment
  • change instrument
  • show fretboard
  • metronome
×
Best way to learn
"See The Light"
Autoscroll
slow
fast
+/-
esc
set tempo
stop
Contributor
-------------------------------------------------------------------------------
                           See The Light-Green Day
-------------------------------------------------------------------------------
Tabbed by:Stjimmy34
Tuning:Standard

The third guitar and solo were sort of hard to tab. I hope this helps anyone
who needs it, though.

Intro 

Guitar 1 x8 (clean)
e|-4--6-----------------------------------------------------------------------|
B|-6--4-----------------------------------------------------------------------|
G|-6--5-----------------------------------------------------------------------|
D|-6--6-----------------------------------------------------------------------|
A|-4--6-----------------------------------------------------------------------|
E|----4-----------------------------------------------------------------------|

Guitar 3 Plays this continuously throughout the intro and verse
e|-11----11----11----11---11--------------------------------------------------|
B|----99----99----99----9----9------------------------------------------------|
G|----------------------------------------------------------------------------|
D|----------------------------------------------------------------------------|
A|----------------------------------------------------------------------------|
E|----------------------------------------------------------------------------|


Verse

Guitar 1
e|------------------------|---------------------------------------------------|
B|------------------------|---------------------------------------------------|
G|-6----------------------|-6-------------------------------------------------|
D|-6-6---------------(x3)-|-6-6-----------------------------------------------|
A|-4-6-666666666666-------|-4-6-66666//////////-------------------------------|
E|---4-444444444444-------|---4-44444/////////--------------------------------|

Guitar 2
e|----------------------------------------------------------------------------|
B|---------------------9-999999999999----------------------9-99999------------|
G|-6-----------------6-8-888888888888--6-----------------6-8-88888/////////---|
D|-6-6---------------6-6-666666666666--6-6---------------6-6-66666////////----|
A|-4-6-666666666666--4-----------------4-6-666666666666--4--------------------|
E|---4-444444444444----------------------4-444444444444-----------------------|


Chorus

Guitar 1
e|------------------------------------------|-----------------------------------|
B|------------------------------------------|----------------------------9----9-|
G|-6-66-666-----666------------6------------|-6-66-666-----666-888888888-8-88-8-|
D|-6-66-666-444-666-6-66-666-6-6-6-66--(x3)-|-6-66-666-444-666-888888888-6-88-6-|
A|-4-44-444-444-444-6-66-666-6-4-6-66-------|-4-44-444-444-444-666666666---66---|
E|----------222-----4-44-444-4---4-44-------|----------222----------------------|

Second verse, play the first part 7 times, then play the second part

Chorus, end on Eb for the second part


Solo

Guitar 1 just plays the chorus under the solo

Guitar 2
e|--------------------------8---11-8-----8---8---8-11-8---11-----------------|
B|-6-4------6-7-77-6-66-9-9---9------9-9---9---9--------9--------------------|
G|-----6-66------------------------------------------------------------------|
D|---------------------------------------------------------------------------|
A|---------------------------------------------------------------------------|
E|---------------------------------------------------------------------------|

e|-13-11---------13-14-1414-13-1313----------------------------------16-------|
B|-------14-1414--------------------16----16----16----16----16----16----16-13-|
G|-------------------------------------13----13----13----13----13-------------|
D|----------------------------------------------------------------------------|
A|----------------------------------------------------------------------------|
E|----------------------------------------------------------------------------|

e|--------------------------8---11-8-----8---8---8-11-8---11-----------------|
B|-6-4------6-7-77-6-66-9-9---9------9-9---9---9--------9--------------------|
G|-----6-66------------------------------------------------------------------|
D|---------------------------------------------------------------------------|
A|---------------------------------------------------------------------------|
E|---------------------------------------------------------------------------|

e|-13-11---------13-14-1414-13-1313-11-11---11---11---11---11---11---11---11---11-|
B|-------14-1414--------------------------8----8----8----8----8----8----8----8----|
G|--------------------------------------------------------------------------------|
D|--------------------------------------------------------------------------------|
A|--------------------------------------------------------------------------------|
E|--------------------------------------------------------------------------------|

e|-11---11~-----11-9-8~------------------------------------------------------|
B|----9-9~----9--------------------------------------------------------------|
G|---------------------------------------------------------------------------|
D|---------------------------------------------------------------------------|
A|---------------------------------------------------------------------------|
E|---------------------------------------------------------------------------|

Third verse, play the first part 9 times, then the second

Chorus


Outro

Guitar 1                This plays until the song fades out
e|--------------------|-4-4--------------------------------------------------|
B|--------------------|-6-4--------------------------------------------------|
G|-6------6------6----|-6-5--------------------------------------------------|
D|-6-6----6-6----6-6--|-6-6--------------------------------------------------|
A|-4-6----4-6----4-6--|-4-6--------------------------------------------------|
E|---4------4------4--|---4--------------------------------------------------|

Guitar 2
e|---------------------------------------------------------------------------|
B|---9------9------9---------------------------------------------------------|
G|-6-8----6-8----6-8---------------------------------------------------------|
D|-6-6----6-6----6-6---------------------------------------------------------|
A|-4------4------4-----------------------------------------------------------|
E|---------------------------------------------------------------------------|

Guitar 3 plays the same thing as in the intro




| /  slide up
| \  slide down
| h  hammer-on
| p  pull-off
| ~  vibrato
| +  harmonic
| x  Mute note
===============================================================================
comments
We did not receive enough feedback on this tab! Please rate:
print report bad tab
1 2 3 4 5
I want to post or [tab]
guest
You may want to rate the tab now too:
select rating
Please do not post tabs as comments. Select "correction" instead!