Oops, an error
Loading. Please wait.

See The Light Tab

version 3
version 3

Whole song

Interactive

1,187 views 1 this week
no commentswrite comment
1 2 3 4 5
please rate
add to favorites
launch autoscroll
font size
0
reset
how to read this tab
guitar tuner
Tab Pro tools
  • play this tab
  • loop segment
  • change instrument
  • show fretboard
  • metronome
×
Best way to learn
"See The Light"
Autoscroll
slow
fast
+/-
esc
set tempo
stop
Contributor
Difficulty
novice
IMPORTANT: as with all my tabs, i dont write out the rythmn(rythmn as in how many times 
play each note) unless its a solo, so everything else (chorus verse etc...) u figure out 
rythmn which is relativly simple.

Song: See the Light
Artist:Green Day
Tuning:standard
Tabbed by: JC#5
this is an awesome song from their album 21st Century Breakdown,a worthy closer of the album.
INTRO: (well i crossed the river fell into the sea)
--------------|
---6----------|
---6--5-------|
---6--6-------|
---4--6-------|
------4-------|

VERSE: I(then i scratched the surface)
       II(ive been wasted pills and alcohol)
--------------------------------------------------------------------------|
--6-----------------------------------------------------------------------|
--6-----------------------------------------------------------------------|P.M.
--6---6--66666666666------------------------------------------------------|
--4---6--66666666666------------------------------------------------------|
----0-4--44444444444------------------------------------------------------|

CHORUS: (well i, i just wanna see the light)
--------------------------------------------------|
-6-------6----6-------6------6--8-----8-----------|
-6-------6----6-------6------6--8-----8-----------|
-6---4---6---666--X3--6--4---6--8---6-8-----------|
-4---4---4---646------4--4---4--6---6-6-----------|
-----2-------4-4---------2----------4-------------|
CHORUS GUITAR II
---9--9--9-8-8---8---8---8-8----11-11-11-----------------------------------|
---9--7--9-9-9-9---9---9-----9--9--9--9------------------------------------|
---------------------------------------------------------------------------|
---------------------------------------------------------------------------|
---------------------------------------------------------------------------|
---------------------------------------------------------------------------|

VERSE, CHORUS
SOLO  (Guitar II same as chorus)
---------------------------------8---8---8----8-11-11-11----|
----/6---------6-7-77-6-66-/9-9---99---99---9---9--9--9-----|
-------8-6-6-8----------------------------------------------|
------------------------------------------------------------|
------------------------------------------------------------|
------------------------------------------------------------|
                                        1st ending
-/13-------------13-14-14-14-13-13-13-!------------------------------16-----|
-----16-14-14-16----------------------!16-16-----------16-----16-------16---|
-------------------------------------.!------11---11-11--11-11-----11----11-|
-------------------------------------.!-------------------------------------|
--------------------------------------!-------------------------------------|
--------------------------------------!-------------------------------------|
2nd ending
--11-11--11-11-11-11--------11---8----11----8-----------------------------|
---------8--8--8--8...----9-9--9-9-9--9--9--9-----------------------------|
--------------------------------------------------------------------------|
--------------------------------------------------------------------------|
--------------------------------------------------------------------------|
--------------------------------------------------------------------------|
VERSE,CHORUS

OUTRO1            OUTRO2   fade out
---------------!-------------------------------------------------------------|
---------------!----6--------------------------------------------------------|
---6-----------!----6-----5--------------------------------------------------|
---6-----6-----!----6-----6--------------------------------------------------|
---4-----6-----!----4-----6--------------------------------------------------|
-----0---4-----!----------4--------------------------------------------------|
comments
We did not receive enough feedback on this tab! Please rate:
print report bad tab
1 2 3 4 5
I want to post or [tab]
guest
You may want to rate the tab now too:
select rating
Please do not post tabs as comments. Select "correction" instead!