Oops, an error
Loading. Please wait.

Sex Drugs And Violence Tab

version 1
version 1

Whole song

Interactive

9,873 views 30 this week
no commentswrite comment
1 2 3 4 5
accurate
x 8
add to favorites
launch autoscroll
font size
0
reset
how to read this tab
guitar tuner
Autoscroll
slow
fast
+/-
esc
set tempo
stop
Help us to improve Ultimate-Guitar.com Take our survey!
×
Difficulty
novice
Intro

   E5      A5 B5      E5      C#5  B5
E|------------------|------------------|
B|------------------|------------------|
G|-999999999--------|-9999999996-4-444-|
D|-9999999997-9-999-|-9999999996-4-444-|
A|-7777777777-9-999-|-7777777774-2-222-|
E|----------5-7-777-|------------------|

Verse

   E       A5      E5     A5|G#5|E5    E       A5      B5    B5  E5  B5
E|-00000000--------------------------|-00000000-------------------------|
B|-00000000--------------------------|-00000000-------------------------|
G|-11111111--------99999999----------|-11111111------------------9------|
D|-2222222277777777999999997-76-2-22-|-222222227777777799999999-99-9-99-|
A|-2222222277777777777777777-76-2-22-|-222222227777777799999999-97-9-99-|
E|-0000000055555555--------5-54-0-00-|-000000005555555577777777-7--7-77-|

 

Pre-chorus

   A5      B5      A5      B5      A5      B5      C#m               
E|------------------------------------------------------------------|
B|-------------------------------------------------5555555555555555-|
G|-------------------------------------------------6666666666666666-|
D|-7777777799999999777777779999999977777777999999996666666666666666-|
A|-7777777799999999777777779999999977777777999999994444444444444444-|
E|-555555557777777755555555777777775555555577777777-----------------|

  A5      B5      G#5     C#5     A5      B5
E|--------------------------------------------------|
B|--------------------------------------------------|
G|-------------------------66666666-----------------|
D|-777777779999999966666666666666667777777799999999-|
A|-777777779999999966666666444444447777777799999999-|
E|-555555557777777744444444--------5555555577777777-|

Post-chorus

   E   B   C#m G#m A   E   B5
E|-7---7---4---4---5---7-------------------|
B|-9---7---5---4---5---9-------------------|
G|-9---8---6---4---6---9-------------------|
D|-9---9---6---6---7---9---999999999-9-9-9-|
A|-7---9---4---6---7---7---999999999-9-9-9-|
E|-----7-------4---5-------777777777-7-7-7-|

Bridge

   E5  A5 B5   E5  C#5   B5
E|-----------------------------|
B|-----------------------------|
G|-9-----------9---------------|
D|-9---7779-9999---1111119-999-|
A|-7---7779-9997---1111119-999-|
E|-----5557-777----9-9-9-7-777-|

Ending

   A5   B5     A5    B5    E5  Em7
E|-----------|--------------------|
B|-----------|-----------------8\-|
G|-----------|-------------9---7\-|
D|-7-7-7-9---|-7-7-7-9-9-9-9---9\-|
A|-7-7-7-9---|-7-7-7-9-9-9-7---7\-|
E|-5-5-5-7---|-5-5-5-7-7-7--------|
Suggest correction
What's this?
You can suggest a correction to this tab. Community and Mods will review your correction and vote to approve or reject it.
comments
print report bad tab
guest
You may want to rate the tab now too:
select rating
Please do not post tabs as comments. Select "correction" instead!