Oops, an error
Loading. Please wait.

She Bass Tab

version 4
version 4

Whole song

37,709 views 63 this week
8 commentsread comments
1 2 3 4 5
x 27
add to favorites
launch autoscroll
font size
0
reset
guitar tuner
Autoscroll
slow
fast
+/-
esc
set tempo
stop
Help us to improve Ultimate-Guitar.com Take our survey!
×
Author
Difficulty
intermediate
[Intro]
G|--------------------------------|
D|-44-4444-44-444-44-4444-44-444--|
A|--------------------------------|
E|--------------------------------|

[Verse 1] 
(Part 1)
G|--------------------------------------------------------------|
D|-44-4444-44-4446-------------------------------44-4444-44-444-|
A|-----------------44-4444-44-444-22-2222-22-222----------------|
E|-------------------------------4------------------------------|

[Verse 1] 
(Part 2)
G|--------------------------------------------------------------------|
D|-44-4444-44-4446------------------------3h4-3h4-3h4-----------------|
A|-----------------44-4444-44-444-22-2222----2---2--------------------|
E|-------------------------------4-------------------2222222222222222-|

[Chorus 1] x2
G|---------------------------------|
D|---------------------2h4---------|
A|-44-4444-444-444-22-2------------|
E|------------------------2-22-222-|

[Outro 1] x3
G|-----------------     G|-------------------|
D|-----------------     D|-------------------|
A|-2-222h4---------     A|-2h444444444444444-|
E|---------22-2222-     E|-------------------|

[Verse 2] 
(Part 1)
G|-----------------------------------------------------------------|
D|-----------------------------------------------------------------|
A|------------------4444444444444444-2222222222222222---22---------|
E|-2222222222222222-----------------------------------22--2-22-222-|

[Verse 2] 
(Part 2)
G|--------------------------------------------------------------------|
D|-------------------------------------------3h4-3h4-3h4--------------|
A|------------------4444444444444444-22222222---2---2------22---------|
E|-2222222222222222--------------------------------------22--2-22-222-|

[Chorus 2] x2
G|---------------------------------|
D|---------------------2h4---------|
A|-44-4444-444-444-22-2------------|
E|------------------------2-22-222-|

[Outro 2] x3
G|------------------      G|-------------------|
D|------------------      D|-------------------|
A|-22-222h4---------      A|-2h444444444444444-|
E|----------22-2222-      E|-------------------|

[Bridge] x2
G|----------------------------------------------------------------------|
D|--------------------------3h4-6-4p3----------3h4-3h4-3h4--------------|
A|----------------44-4444-6-----------6-22-2222---2---2------22---------|
E|-22-2222-22-222------------------------------------------22--2-22-222-|

[Chorus 3] (x2)
G|---------------------------------|
D|---------------------2h4---------|
A|-44-4444-444-444-22-2------------|
E|------------------------2-22-222-|

[Outro 3] x3
G|------------------      G|--------------------|
D|------------------      D|--------------------|
A|-22-222h4---------      A|-2h444444444444444--|
E|----------22-2222-      E|------------------4-|


************************************

| h  Hammer-on
| p  Pull-off

************************************
Suggest correction
comments
print report bad tab
8 comments total. Showing first comments.
0 reply
Pablotheunicorn 10 Nov 09, 2010 11:03 PM

Great tab, except that I think you misunderstand what an outro is

0 reply
D LGND 10 Sep 14, 2011 06:48 PM

lol I know right?

+1 reply
Ultra Purple 20 Jul 24, 2012 07:07 PM

I don't think that this song is tuned a half step down. It sounds right in standard to me.

guest
You may want to rate the tab now too:
select rating
Wanna post a correction for this tab? Suggest correction