Oops, an error
Loading. Please wait.

Shes A Rebel Bass Tab

version 1
version 1

Whole song

11,791 views 18 this week
no commentswrite comment
1 2 3 4 5
accurate
x 15
add to favorites
launch autoscroll
font size
0
reset
guitar tuner
Autoscroll
slow
fast
+/-
esc
set tempo
stop
Help us to improve Ultimate-Guitar.com Take our survey!
×
Author
Green Day She's a Rebel Bass tab
From the album 'American Idiot'
Track 8
Tabbed by Liam
Email: guitar_rocker_47@hotmail.com
Tuning: Standard

Intro
G|---------------------------------------------------------------------------|
D|---------------------------------------------------------------------------|
A|-----------------5-5--3-3-------------------5-5--3-3-----------------------|
E|--3-3--3-3--3-3--------------3-3--3-3--3-3---------------------------------|

Verse
G|-----------------------------------------------|---------------------------|
D|-----------------------------------------------|---------------------------|
A|--------3-3---------3-3---------3-3--5-5--3-3--|---------3-3---------------|
E|-3-x-x-------3-x-x-------3-x-x-----------------|--3-x-x-------3-x-x--------|

G|-----------------------|---------------------------------------------------|
D|-----------------------|---------------------------------------------------|
A|--------3-3--5-5--3-3--|---------3-3---------3-3---------3-3--5-5--3-3-----|
E|-3-x-x-----------------|--3-x-x-------3-x-x-------3-x-x--------------------|

G|-----------------------------------------------|---------------------------|
D|-----------------------------------------------|---------------------------|
A|--------3-3---------3-3---------3-3--5-5--3-3--|---------3-3--------3-3----|
E|-3-x-x-------3-x-x-------3-x-x-----------------|--3-x-x-------3-x-x--------|

G|---------------------------------------------------------------------------|
D|---------------------------------------------------------------------------|
A|--------3-3--5-5--3-3-3-3--------------------------------------------------|
E|-3-x-x --------------------------------------------------------------------|

Chorus
G|---------------------------------------------------------------------------|
D|-------------------------------------------------------------------3-3-3-3-|
A|-7-7-7-7-------------3-3-3-3-------------------7-7-7-7---------------------|
E|----------7-7-7-7-7-----------3-3-3-3-3-3-3-3-----------7-7-7-7-7----------|

e|---------------------------------------------------------------------------|
B|---------------------------------------------------------------------------|
G|---------------------------------------------------------------------------|
D|--------------------------5------------------------------------------------|
A|-3-3-3-3-------------3-3----5----------------------------------------------|
E|-----------7-7--5-5--------------------------------------------------------|

Bridge (guitar plays in the foreground but bass plays the chorus one more time)

Outro 
e|-----------------------------------------------|---------------------------|
B|-----------------------------------------------|---------------------------|
G|-----------------------------------------------|---------------------------|
D|-----------------------------------------------|---------------------------|
A|--------3-3---------3-3---------3-3--5-5--3-3--|---------3-3---------3-3---|
E|-3-x-x-------3-x-x-------3-x-x-----------------|--3-x-x-------3-x-x--------|

G|-----------------------|---------------------------------------------------|
D|-----------------------|---------------------------------------------------|
A|--------3-3--5-5--3-3--|---------3-3---------3-3---------3-3--5-5--3-3-----|
E|-3-x-x-----------------|--3-x-x-------3-x-x-------3-x-x -------------------|

G|---------------------------------------------------------------------------|
D|---------------------------------------------------------------------------|
A|--------3-3---------3-3---------3-3--5-5--3-3------------------------------|
E|-3-x-x-------3-x-x-------3-x-x---------------------------------------------|


Order

Intro
Verse
Chorus
Bridge
Chorus
Intro
Outro

Lyrics

Lyrics:

(Intro)
She's a rebel
She's a saint                   
She's the salt of the earth
And she's dangerous             
She's a rebel
Vigilante                       
Missing link on the brink       
Of destruction

(Verse 1)
From Chicago 
To Toronto                      
She's the one that they
Call old Whatsername            
She's the symbol
Of resistance                   
And she's holding on my
Heart like a hand grenade

Is she dreaming
What I'm thinking
Is she the mother of all bombs  
Gonna detonate                  
Is she trouble                  
Like I'm trouble
Make it a double                
Twist of fate
Or a melody that

(Chorus)
She sings the revolution
The dawning of our lives
She brings this liberation      
That I just cant define
Well nothing comes to mind

(Bridge)

(Chorus)

(Intro)
(Intro - lyrics verse played)


She's a rebel
She's a rebel                   
She's a rebel           
And she's dangerous            
She's a rebel
She's a rebel                   
She's a rebel
And she's dangerous

Rate this if you like it, Thanks!
Suggest correction
comments
print report bad tab
guest
You may want to rate the tab now too:
select rating
Wanna post a correction for this tab? Suggest correction