Oops, an error
Loading. Please wait.

Shes A Rebel Tab

version 2
version 2
29,564 views 9 this week
5 commentsread comments
1 2 3 4 5
accurate
x 11
add to favorites
launch autoscroll
font size
0
reset
how to read this tab
guitar tuner
Autoscroll
slow
fast
+/-
esc
set tempo
stop
Help us to improve Ultimate-Guitar.com Take our survey!
×
Contributor
Liam 5,083
Green Day She's a Rebel
From the album 'American Idiot'
Track 8
Tabbed by Liam
Email: guitar_rocker_47@hotmail.com
Tuning: Standard


Intro
e|---------------------------------------------------------------------------|
B|---------------------------------------------------------------------------|
G|-----------------7-7--5-5-------------------7-7--5-5-----------------------|
D|--5-5--5-5--5-5--7-7--5-5----5-5--5-5--5-5--7-7--5-5-----------------------|
A|--5-5--5-5--5-5--5-5--3-3----5-5--5-5--5-5--5-5--3-3-----------------------|
E|--3-3--3-3--3-3--------------3-3--3-3--3-3---------------------------------|

Verse
e|-----------------------------------------------|---------------------------|
B|-----------------------------------------------|---------------------------|
G|--------5-5---------5-5---------5-5--7-7--5-5--|---------5-5---------5-5---|
D|-5-x-x--5-5--5-x-x--5-5--5-x-x--5-5--7-7--5-5--|--5-x-x--5-5--5-x-x--5-5---|
A|-5-x-x--3-3--5-x-x--3-3--5-x-x--3-3--5-5--3-3--|--5-x-x--3-3--5-x-x--3-3---|
E|-3-x-x-------3-x-x-------3-x-x-----------------|--3-x-x-------3-x-x--------|

e|-----------------------|---------------------------------------------------|
B|-----------------------|---------------------------------------------------|
G|--------5-5--7-7--5-5--|---------5-5---------5-5---------5-5--7-7--5-5-----|
D|-5-x-x--5-5--7-7--5-5--|--5-x-x--5-5--5-x-x--5-5--5-x-x--5-5--7-7--5-5-----|
A|-5-x-x--3-3--5-5--3-3--|--5-x-x--3-3--5-x-x--3-3--5-x-x--3-3--5-5--3-3-----|
E|-3-x-x ----------------|--3-x-x-------3-x-x-------3-x-x -------------------|

e|-----------------------------------------------|---------------------------|
B|-----------------------------------------------|---------------------------|
G|--------5-5---------5-5---------5-5--7-7--5-5--|---------5-5---------5-5---|
D|-5-x-x--5-5--5-x-x--5-5--5-x-x--5-5--7-7--5-5--|--5-x-x--5-5--5-x-x--5-5---|
A|-5-x-x--3-3--5-x-x--3-3--5-x-x--3-3--5-5--3-3--|--5-x-x--3-3--5-x-x--3-3---|
E|-3-x-x-------3-x-x-------3-x-x-----------------|--3-x-x-------3-x-x--------|

e|---------------------------------------------------------------------------|
B|---------------------------------------------------------------------------|
G|--------5-5--7-7--5-5-5-5--------------------------------------------------|
D|-5-x-x--5-5--7-7--5-5-5-5--------------------------------------------------|
A|-5-x-x--3-3--5-5--3-3-3-3--------------------------------------------------|
E|-3-x-x --------------------------------------------------------------------|

Chorus
e|---------------------------------------------------------------------------|
B|-------------------------------------------------------------------5-5-5-5-|
G|-9-9-9-9-------------5-5-5-5-------------------9-9-9-9-------------5-5-5-5-|
D|-9-9-9-9--9-9-9-9-9--5-5-5-5--5-5-5-5-5-5-5-5--9-9-9-9--9-9-9-9-9--3-3-3-3-|
A|-7-7-7-7--9-9-9-9-9--3-3-3-3--5-5-5-5-5-5-5-5--7-7-7-7--9-9-9-9-9----------|
E|----------7-7-7-7-7-----------3-3-3-3-3-3-3-3-----------7-7-7-7-7----------|

e|---------------------------------------------------------------------------|
B|--------------------------7------------------------------------------------|
G|-5-5-5-5-------------5-5--7-7----------------------------------------------|
D|-5-5-5-5---9-9--7-7--5-5--5-7----------------------------------------------|
A|-3-3-3-3---9-9--7-7--3-3----5----------------------------------------------|
E|-----------7-7--5-5--------------------------------------------------------|

Bridge (I cudn't work this out, so this is Steve Gray reizig@gmail.com 's version
this is played with the chorus in background)
e|-------------------------------------------------------------|--------------|
B|----3-3-----------3-3-----------3-3--------------------------|----3-3-------|
G|-xx-4-4-xx-5-5-xx-4-4-xx-5-5-xx-4-4-xx-5-5-/2-2-2--2-4-5-4---|-xx-4-4-xx-5-5|
D|-----------5-5-----------5-5-----------5-5-------------------|-----------5-5|
A|-------------------------------------------------------------|--------------|
E|-------------------------------------------------------------|--------------|

e|---------------------------------------------------------------------------|
B|----3-3-----------3-3------------------------------------------------------|
G|-xx-4-4-xx-5-5-xx-4-4-xx-5-5-/2-2-2--2-4-5-4-------------------------------|
D|-----------5-5-----------5-5-----------------------------------------------|
A|---------------------------------------------------------------------------|
E|---------------------------------------------------------------------------|

Outro this is played with a 2nd  guitar playing the bridge in the background
e|-----------------------------------------------|---------------------------|
B|-----------------------------------------------|---------------------------|
G|--------5-5---------5-5---------5-5--7-7--5-5--|---------5-5---------5-5---|
D|-5-x-x--5-5--5-x-x--5-5--5-x-x--5-5--7-7--5-5--|--5-x-x--5-5--5-x-x--5-5---|
A|-5-x-x--3-3--5-x-x--3-3--5-x-x--3-3--5-5--3-3--|--5-x-x--3-3--5-x-x--3-3---|
E|-3-x-x-------3-x-x-------3-x-x-----------------|--3-x-x-------3-x-x--------|

e|-----------------------|---------------------------------------------------|
B|-----------------------|---------------------------------------------------|
G|--------5-5--7-7--5-5--|---------5-5---------5-5---------5-5--7-7--5-5-----|
D|-5-x-x--5-5--7-7--5-5--|--5-x-x--5-5--5-x-x--5-5--5-x-x--5-5--7-7--5-5-----|
A|-5-x-x--3-3--5-5--3-3--|--5-x-x--3-3--5-x-x--3-3--5-x-x--3-3--5-5--3-3-----|
E|-3-x-x ----------------|--3-x-x-------3-x-x-------3-x-x -------------------|

e|---------------------------------------------------------------------------|
B|---------------------------------------------------------------------------|
G|--------5-5---------5-5---------5-5--7-7--5-5------------------------------|
D|-5-x-x--5-5--5-x-x--5-5--5-x-x--5-5--7-7--5-5------------------------------|
A|-5-x-x--3-3--5-x-x--3-3--5-x-x--3-3--5-5--3-3------------------------------|
E|-3-x-x-------3-x-x-------3-x-x---------------------------------------------|


Order

Intro
Verse
Chorus
Bridge
Chorus
Intro
Outro

Lyrics

Lyrics:

(Intro)
She's a rebel
She's a saint                   
She's the salt of the earth
And she's dangerous             
She's a rebel
Vigilante                       
Missing link on the brink       
Of destruction

(Verse 1)
From Chicago 
To Toronto                      
She's the one that they
Call old Whatsername            
She's the symbol
Of resistance                   
And she's holding on my
Heart like a hand grenade

Is she dreaming
What I'm thinking
Is she the mother of all bombs  
Gonna detonate                  
Is she trouble                  
Like I'm trouble
Make it a double                
Twist of fate
Or a melody that

(Chorus)
She sings the revolution
The dawning of our lives
She brings this liberation      
That I just cant define
Well nothing comes to mind

(Bridge)

(Chorus)

(Intro)
(Intro - lyrics verse played)


She's a rebel
She's a rebel                   
She's a rebel           
And she's dangerous            
She's a rebel
She's a rebel                   
She's a rebel
And she's dangerous

Yeah! Now lets all be Billie Joe, hang your guitar low, jump in the air on every high
pitched note, do over exaggerated down strums and just be a very good punk just like
he is. Billie Joe is a dude!

Rate this, if you like it, THANKS!
Suggest correction new What's this?
You can suggest a correction to this tab. Community and Mods will review your correction and vote to approve or reject it.
comments
print report bad tab
5 comments total. Showing first comments.
0 reply
prettyvacant 14 wrote on June 19 2006, 01:07 am

Hi! Great tab! Nicely set out. I feel so dumb asking but what do the little x's mean?

0 reply
Liam 5,083 wrote on June 19 2006, 08:09 am

^its a fretting hand mute, so lightly place your fretting hand on the strings and play as usual, its like a thud sound. hope that helps?

0 reply
Squirrel1993 1,025 wrote on December 3 2006, 10:47 pm

for the bridge:
|-------------------------------
|-------------------------------
|12-12-12-12-12-11-11-11-14-12--
|XXXXXXXXXXXXXXXXXXXXXXXXXXXXX--
|10-10-10-10-10--9--9--9-12-10--
|-------------------------------

guest
You may want to rate the tab now too:
select rating
Please do not post tabs as comments. Select "correction" instead!