Oops, an error
Loading. Please wait.

Shes A Rebel Tab

version 3
version 3
9,083 views 1 this week
9 commentsread comments
1 2 3 4 5
accurate
x 19
add to favorites
launch autoscroll
font size
0
reset
how to read this tab
guitar tuner
Tab Pro tools
  • play this tab
  • loop segment
  • change instrument
  • show fretboard
  • metronome
×
Best way to learn
"Shes A Rebel"
Autoscroll
slow
fast
+/-
esc
set tempo
stop
Contributor
Tabbers playing skills
intermediate ++

 |-------------------------------------------------|
 | Green Day                                       |
 |-------------------------------------------------| 
 | She's A Rebel                                   |
 |-------------------------------------------------|
 | American Idiot (2004)                           |
 |-------------------------------------------------|
 | Tabbed By Donkey Fly       (2005)               |
 |-------------------------------------------------|
 | thedonkeyfly@hotmail.com                        |
 |-------------------------------------------------|


I Tabbbed this out a while ago but only just found it so here it is...it's all in
order so just follow it. Enjoy


Chorus
E|--------------------------------------------||
B|--------------------------------------------||
G|--------------------------------------------||
D|-5--------------5-5-----------------5-5-----||
A|-5--------------5-5-----------------5-5-----||
E|-3--------------3-3-----------------3-3-----||
    She's a rebel     She's a saint___ 



E|----------------------------------------------------------------||
B|----------------------------------------------------------------||
G|------------------------7-7-7----------5-5-5--------------------||
D|------------------------7-7-7----------5-5-5--------------------||
A|------------------------5-5-5----------3-3-3--------------------||
E|----------------------------------------------------------------||
   She's the salt of the earth and she's dan-ger-ous__


E|--------------------------------------------||
B|--------------------------------------------||
G|--------------------------------------------||
D|-5--------------5-5-----------------5-5-----||
A|-5--------------5-5-----------------5-5-----||
E|-3--------------3-3-----------------3-3-----||
    She's a rebel     vig-i-lan-te____


E|-------------------------------------------------------------||
B|-------------------------------------------------------------||
G|---------------------7-7-7----------5-5-5--------------------||
D|---------------------7-7-7----------5-5-5--------------------||
A|---------------------5-5-5----------3-3-3--------------------||
E|-------------------------------------------------------------||
  missing link on the brink of de-struc-tion


Verses
E|-----------------------------------------------------------------------||
B|-----------------------------------------------------------------------||
G|--------5-5-5---------5-5-5---------5-5-5---7-7-7---5-5-5--------------||
D|-5-5-5--5-5-5--5-5-5--5-5-5--5-5-5--5-5-5---7-7-7---5-5-5--------------||
A|-5-5-5--3-3-3--5-5-5--3-3-3--5-5-5--3-3-3---5-5-5---3-3-3--------------||
E|-3-3-3---------3-3-3--------3-3-3--------------------------------------||
  From chicago to toronto__she's the one they call 'old whatsername'
E|-----------------------------------------------------------------------||
B|-----------------------------------------------------------------------||
G|--------5-5-5---------5-5-5---------5-5-5---7-7-7---5-5-5--------------||
D|-5-5-5--5-5-5--5-5-5--5-5-5--5-5-5--5-5-5---7-7-7---5-5-5--------------||
A|-5-5-5--3-3-3--5-5-5--3-3-3--5-5-5--3-3-3---5-5-5---3-3-3--------------||
E|-3-3-3---------3-3-3--------3-3-3--------------------------------------||
 She's the symbol of resistance__and she's holding on my heart like a handgrenade

 
E|-----------------------------------------------------------------------||
B|-----------------------------------------------------------------------||
G|--------5-5-5---------5-5-5---------5-5-5---7-7-7---5-5-5--------------||
D|-5-5-5--5-5-5--5-5-5--5-5-5--5-5-5--5-5-5---7-7-7---5-5-5--------------||
A|-5-5-5--3-3-3--5-5-5--3-3-3--5-5-5--3-3-3---5-5-5---3-3-3--------------||
E|-3-3-3---------3-3-3--------3-3-3--------------------------------------||

E|-----------------------------------------------------------------------||
B|-----------------------------------------------------------------------||
G|--------5-5-5---------5-5-5---------5-5-5---7-7-7---5-5-5--------------||
D|-5-5-5--5-5-5--5-5-5--5-5-5--5-5-5--5-5-5---7-7-7---5-5-5--------------||
A|-5-5-5--3-3-3--5-5-5--3-3-3--5-5-5--3-3-3---5-5-5---3-3-3--------------||
E|-3-3-3---------3-3-3--------3-3-3--------------------------------------||
  is she thinking what im thinking__ is she the mother of all bombs gonna detonate

E|-----------------------------------------------------------------------||
B|-----------------------------------------------------------------------||
G|--------5-5-5---------5-5-5---------5-5-5---7-7-7---5-5-5--------------||
D|-5-5-5--5-5-5--5-5-5--5-5-5--5-5-5--5-5-5---7-7-7---5-5-5--------------||
A|-5-5-5--3-3-3--5-5-5--3-3-3--5-5-5--3-3-3---5-5-5---3-3-3--------------||
E|-3-3-3---------3-3-3--------3-3-3--------------------------------------||
  is she trouble like im trouble make it a double twist offate or a melody that


  Bridge
E|----------------------------------------------------------------||
B|----------------------------------------------------------------||
G|-9-9-9-9-9-9-9-----------------5-5-5-5-5-5-5--------------------||
D|-9-9-9-9-9-9-9-9-9-9-9-9-9-9---5-5-5-5-5-5-5-5-5-5-5-5-5-5------||
A|-7-7-7-7-7-7-7-9-9-9-9-9-9-9---3-3-3-3-3-3-3-5-5-5-5-5-5-5------||
E|---------------7-7-7-7-7-7-7-----------------3-3-3-3-3-3-3------||
 She sings the revolution  the dawning of our lives



E|----------------------------------------------------------------||
B|----------------------------------------------------------------||
G|------------------------9-9-9-9---------------------------------||
D|-10101010101010-9-9-9-9-9-9-9-9---------------------------------||
A|-10101010101010-9-9-9-9-7-7-7-7---------------------------------||
E|-8-8-8-8-8-8-8--7-7-7-7-----------------------------------------||
   she brings the liberation      that



E|--------------------------------------------------------------||
B|--------------------------------------------------------------||
G|-10101010-7-7-7-7-7-------------------------------------------||
D|-10101010-7-7-7-7-7---9-9---7-7----10------101010-------------||
A|-8-8-8-8--5-5-5-5-5---9-9---7-7----10------8-8-8----1010------||
E|----------------------7-7---5-5----8----------------8-8-------||
  i just cant define__ well nothing comes to mind    yeah

Solo



E|-----------------------------------------------------------------||
B|-----------------------------------------------------------------||
G|-X-12-12-XX-12-12-XX-12-12-XX-12-12-XX-12-12-XX-12-12------------||
D|-X-------XX-------XX-------XX-------XX-------XX------------------||
A|-X-10-10-XX-10-10-XX-10-10-XX-10-10-XX-10-10-XX-10-10------------||
E|-----------------------------------------------------------------||



E|----------------------------------------------------------------||
B|----------------------------------------------------------------||
G|--11--11-11-11-12-14-12-----------------------------------------||
D|----------------------------------------------------------------||
A|--9----9--9--9-10-12-10-----------------------------------------||
E|----------------------------------------------------------------||

E|-----------------------------------------------------------------||
B|-----------------------------------------------------------------||
G|-X-12-12-XX-12-12-XX-12-12-XX-12-12-XX-12-12-XX-12-12------------||
D|-X-------XX-------XX-------XX-------XX-------XX------------------||
A|-X-10-10-XX-10-10-XX-10-10-XX-10-10-XX-10-10-XX-10-10------------||
E|-----------------------------------------------------------------||



E|----------------------------------------------------------------||
B|----------------------------------------------------------------||
G|--11--11-11-11-12-14-12-----------------------------------------||
D|----------------------------------------------------------------||
A|--9----9--9--9-10-12-10-----------------------------------------||
E|----------------------------------------------------------------||

Bridge
E|----------------------------------------------------------------||
B|----------------------------------------------------------------||
G|-9-9-9-9-9-9-9-----------------5-5-5-5-5-5-5--------------------||
D|-9-9-9-9-9-9-9-9-9-9-9-9-9-9---5-5-5-5-5-5-5-5-5-5-5-5-5-5------||
A|-7-7-7-7-7-7-7-9-9-9-9-9-9-9---3-3-3-3-3-3-3-5-5-5-5-5-5-5------||
E|---------------7-7-7-7-7-7-7-----------------3-3-3-3-3-3-3------||
 She sings the revolution  the dawning of our lives



E|----------------------------------------------------------------||
B|----------------------------------------------------------------||
G|------------------------9-9-9-9---------------------------------||
D|-10101010101010-9-9-9-9-9-9-9-9---------------------------------||
A|-10101010101010-9-9-9-9-7-7-7-7---------------------------------||
E|-8-8-8-8-8-8-8--7-7-7-7-----------------------------------------||
   she brings the liberation      that



E|--------------------------------------------------------------||
B|--------------------------------------------------------------||
G|-10101010-7-7-7-7-7-------------------------------------------||
D|-10101010-7-7-7-7-7---9-9---7-7----10------101010-------------||
A|-8-8-8-8--5-5-5-5-5---9-9---7-7----10------8-8-8----1010------||
E|----------------------7-7---5-5----8----------------8-8-------||
  i just cant define__ well nothing comes to mind    

Chorus

Chorus
E|--------------------------------------------||
B|--------------------------------------------||
G|--------------------------------------------||
D|-5--------------5-5-----------------5-5-----||
A|-5--------------5-5-----------------5-5-----||
E|-3--------------3-3-----------------3-3-----||
    She's a rebel     She's a saint___ 



E|----------------------------------------------------------------||
B|----------------------------------------------------------------||
G|------------------------7-7-7----------5-5-5--------------------||
D|------------------------7-7-7----------5-5-5--------------------||
A|------------------------5-5-5----------3-3-3--------------------||
E|----------------------------------------------------------------||
   She's the salt of the earth and she's dan-ger-ous__


E|--------------------------------------------||
B|--------------------------------------------||
G|--------------------------------------------||
D|-5--------------5-5-----------------5-5-----||
A|-5--------------5-5-----------------5-5-----||
E|-3--------------3-3-----------------3-3-----||
    She's a rebel     vig-i-lan-te____


E|-------------------------------------------------------------||
B|-------------------------------------------------------------||
G|---------------------7-7-7----------5-5-5--------------------||
D|---------------------7-7-7----------5-5-5--------------------||
A|---------------------5-5-5----------3-3-3--------------------||
E|-------------------------------------------------------------||
  missing link on the brink of de-struc-tion

Chorus
E|--------------------------------------------||
B|--------------------------------------------||
G|--------------------------------------------||
D|-5--------------5-5-----------------5-5-----||
A|-5--------------5-5-----------------5-5-----||
E|-3--------------3-3-----------------3-3-----||
    She's a rebel     She's a saint___ 



E|----------------------------------------------------------------||
B|----------------------------------------------------------------||
G|------------------------7-7-7----------5-5-5--------------------||
D|------------------------7-7-7----------5-5-5--------------------||
A|------------------------5-5-5----------3-3-3--------------------||
E|----------------------------------------------------------------||
   She's the salt of the earth and she's dan-ger-ous__


E|--------------------------------------------||
B|--------------------------------------------||
G|--------------------------------------------||
D|-5--------------5-5-----------------5-5-----||
A|-5--------------5-5-----------------5-5-----||
E|-3--------------3-3-----------------3-3-----||
    She's a rebel     vig-i-lan-te____


E|-------------------------------------------------------------||
B|-------------------------------------------------------------||
G|---------------------7-7-7----------5-5-5--------------------||
D|---------------------7-7-7----------5-5-5--------------------||
A|---------------------5-5-5----------3-3-3--------------------||
E|-------------------------------------------------------------||
  missing link on the brink of de-struc-tion

Outro

E|-----------------------------------------------------------------------||
B|-----------------------------------------------------------------------||
G|--------5-5-5---------5-5-5---------5-5-5---7-7-7---5-5-5--------------||
D|-5-5-5--5-5-5--5-5-5--5-5-5--5-5-5--5-5-5---7-7-7---5-5-5--------------||
A|-5-5-5--3-3-3--5-5-5--3-3-3--5-5-5--3-3-3---5-5-5---3-3-3--------------||
E|-3-3-3---------3-3-3---------3-3-3-------------------------------------||
She's a rebel  She's a rebel  she's a rebel__ and shes dangerous

E|----------------------------------------------------------------------------||
B|----------------------------------------------------------------------------||
G|--------5-5-5---------5-5-5---------5-5-5---7-7-7---5-5-5-------------------||
D|-5-5-5--5-5-5--5-5-5--5-5-5--5-5-5--5-5-5---7-7-7---5-5-5-------5-5---------||
A|-5-5-5--3-3-3--5-5-5--3-3-3--5-5-5--3-3-3---5-5-5---3-3-3-------5-5---------||
E|-3-3-3---------3-3-3---------3-3-3------------------------------3-3---------||
 she's a rebel  she's a rebel  she's a rebel__and she's dangerous

Order (To Clarify)

Chorus
Verse 1
Verse 2
Bridge
Solo
bridge
Chorus
Chorus
Outro
comments
print report bad tab
9 comments total. Showing first comments.
-1 reply
Robo_Hobo wrote on July 25 2005, 12:00 am

b00!1 star ]=(

0 reply
Donkey Fly wrote on August 2 2005, 12:00 am

huh

0 reply
guitarmonkey4 wrote on September 24 2005, 12:26 pm

I don't get the solo for this song. Your supposed to strum the open D string in between the A string and G string that are fretted way up on the 10th and 12th fret? Whatevvverr.

I want to post or [tab]
guest
You may want to rate the tab now too:
select rating
Please do not post tabs as comments. Select "correction" instead!