Oops, an error
Loading. Please wait.

Shes A Rebel Tab

version 5
version 5
14,315 views 60 this week
no commentswrite comment
1 2 3 4 5
x 11
add to favorites
launch autoscroll
font size
0
reset
how to read this tab
guitar tuner
Autoscroll
slow
fast
+/-
esc
set tempo
stop
Help us to improve Ultimate-Guitar.com Take our survey!
×
Author
Tuning: Standard


[Intro]

   She's a rebel...
e|--------------------------------------------------------------------------|
B|--------------------------------------------------------------------------|
G|----------------------7-7-5-5-------------------------7-7-5-5-------------|
D|-5-5----5-5----5-5----7-7-5-5----5-5----5-5----5-5----7-7-5-5-------------|
A|-5-5----5-5----5-5----5-5-3-3----5-5----5-5----5-5----5-5-3-3-------------|
E|-3-3----3-3----3-3---------------3-3----3-3----3-3------------------------|


[Verse 1]

e|---------------------------------------------------|
B|---------------------------------------------------|
G|-------5-5---------5-5---------5-5-7-7---5-5-------| 
D|-5-5---5-5---5-5---5-5---5-5---5-5-7-7---5-5-------|
A|-5-5(0)3-3(0)5-5(0)3-3(0)5-5(0)3-3-5-5(0)3-3-------|
E|-3-3---------3-3---------3-3-----------------------|(x5)


[Chorus]

   She brings...
e|--------------------------------------------------------------------------|
B|--------------------------------------------------------------------------|
G|-9-9-9-9---------------------5-5-5-5---------------------5-5-5-5-4-4-4----|
D|-9-9-9-9-----9-9-9-9-9-9-----5-5-5-5-----5-5-5-5-5-5-----5-5-5-5-4-4-4----|
A|-7-7-7-7-(0)-9-9-9-9-9-9-(0)-3-3-3-3-(0)-5-5-5-5-5-5-(0)-3-3-3-3-2-2-2----|
E|-------------7-7-7-7-7-7-----------------3-3-3-3-3-3----------------------|

e|--------------------------------------------------------------------------|
B|--------------------------------------------------------------------------|
G|-9-9-9-10-10-10-10-10-7-7------------------12-12--------------------------|
D|-9-9-9-10-10-10-10-10-7-7-9-9-7-7----------12-12-12-12--------------------|
A|-7-7-7-8--8--8--8--8--5-5-9-9-7-7--10-10-x-10-10-12-12--------------------|
E|--------------------------7-7-5-5--8--8--x-------10-10--------------------|

e|-----------------------------------------------------------------------|
B|-----------------------------------------------------------------------|
G|-x-x-7-7-x-x-7-7-x-x-7-7-x-x-7-7-x-x-7-7-x-x-7-7--6-6-6-6-6--7--9--7---|
D|-x-x-5-5-x-x-5-5-x-x-5-5-x-x-5-5-x-x-5-5-x-x-5-5--4-4-4-4-4--5--7--5---|
A|-----------------------------------------------------------------------|
E|-----------------------------------------------------------------------|(x2)


[Chorus]

   She brings...
e|--------------------------------------------------------------------------|
B|--------------------------------------------------------------------------|
G|-9-9-9-9---------------------5-5-5-5---------------------5-5-5-5-4-4-4----|
D|-9-9-9-9-----9-9-9-9-9-9-----5-5-5-5-----5-5-5-5-5-5-----5-5-5-5-4-4-4----|
A|-7-7-7-7-(0)-9-9-9-9-9-9-(0)-3-3-3-3-(0)-5-5-5-5-5-5-(0)-3-3-3-3-2-2-2----|
E|-------------7-7-7-7-7-7-----------------3-3-3-3-3-3----------------------|

e|--------------------------------------------------------------------------|
B|--------------------------------------------------------------------------|
G|-9-9-9-10-10-10-10-10-7-7------------------12-12--------------------------|
D|-9-9-9-10-10-10-10-10-7-7-9-9-7-7----------12-12-12-12--------------------|
A|-7-7-7-8--8--8--8--8--5-5-9-9-7-7--10-10-x-10-10-12-12--------------------|
E|--------------------------7-7-5-5--8--8--x-------10-10--------------------|

   She's a rebel...
e|--------------------------------------------------------------------------|
B|--------------------------------------------------------------------------|
G|----------------------7-7-5-5-------------------------7-7-5-5-------------|
D|-5-5----5-5----5-5----7-7-5-5----5-5----5-5----5-5----7-7-5-5-------------|
A|-5-5----5-5----5-5----5-5-3-3----5-5----5-5----5-5----5-5-3-3-------------|
E|-3-3----3-3----3-3---------------3-3----3-3----3-3------------------------|


[Outro 1]

e|---------------------------------------------------|
B|---------------------------------------------------|
G|-------5-5---------5-5---------5-5-7-7---5-5-------|
D|-5-5---5-5---5-5---5-5---5-5---5-5-7-7---5-5-------|
A|-5-5(0)3-3(0)5-5(0)3-3(0)5-5(0)3-3-5-5(0)3-3-------|
E|-3-3---------3-3---------3-3-----------------------|(x2)


[Outro 2]

e|-----------------------------------------------------------------------|
B|-----------------------------------------------------------------------|
G|-x-x-7-7-x-x-7-7-x-x-7-7-x-x-7-7-x-x-7-7-x-x-7-7--6-6-6-6-6--7--9--7---|
D|-x-x-5-5-x-x-5-5-x-x-5-5-x-x-5-5-x-x-5-5-x-x-5-5--4-4-4-4-4--5--7--5---|
A|-----------------------------------------------------------------------|
E|-----------------------------------------------------------------------|(x2)

[Outro 3]

e|-----------------------------------------|
B|-----------------------------------------|
G|-----------------------------------------|
D|-5-5-------------------------------------|
A|-5-5-------------------------------------|
E|-3-3-------------------------------------|


************************************

| x  dead note
| () palm mute

************************************
Suggest correction
comments
print report bad tab
guest
You may want to rate the tab now too:
select rating
Wanna post a correction for this tab? Suggest correction