Oops, an error
Loading. Please wait.

Shes A Rebel Tab

version 5
version 5
13,520 views 102 this week
no commentswrite comment
1 2 3 4 5
excellent!
x 11
add to favorites
launch autoscroll
font size
0
reset
how to read this tab
guitar tuner
Autoscroll
slow
fast
+/-
esc
set tempo
stop
Help us to improve Ultimate-Guitar.com Take our survey!
×
Author
----------------------------------------------------------------------------
                             SONG NAME - She's a Rebel
----------------------------------------------------------------------------

Tabbed by:Pickers (Zach)
Email:zohara3946@gmail.com

Tuning:Standard

Intro
   She's a rebel...
e|--------------------------------------------------------------------------|
B|--------------------------------------------------------------------------|
G|----------------------7-7-5-5-------------------------7-7-5-5-------------|
D|-5-5----5-5----5-5----7-7-5-5----5-5----5-5----5-5----7-7-5-5-------------|
A|-5-5----5-5----5-5----5-5-3-3----5-5----5-5----5-5----5-5-3-3-------------|
E|-3-3----3-3----3-3---------------3-3----3-3----3-3------------------------|

Verse 1
e|---------------------------------------------------|
B|---------------------------------------------------|
G|-------5-5---------5-5---------5-5-7-7---5-5-------| Play 5 Times
D|-5-5---5-5---5-5---5-5---5-5---5-5-7-7---5-5-------|
A|-5-5(0)3-3(0)5-5(0)3-3(0)5-5(0)3-3-5-5(0)3-3-------|
E|-3-3---------3-3---------3-3-----------------------|

Chorus
   She brings...
e|--------------------------------------------------------------------------|
B|--------------------------------------------------------------------------|
G|-9-9-9-9---------------------5-5-5-5---------------------5-5-5-5-4-4-4----|
D|-9-9-9-9-----9-9-9-9-9-9-----5-5-5-5-----5-5-5-5-5-5-----5-5-5-5-4-4-4----|
A|-7-7-7-7-(0)-9-9-9-9-9-9-(0)-3-3-3-3-(0)-5-5-5-5-5-5-(0)-3-3-3-3-2-2-2----|
E|-------------7-7-7-7-7-7-----------------3-3-3-3-3-3----------------------|

e|--------------------------------------------------------------------------|
B|--------------------------------------------------------------------------|
G|-9-9-9-10-10-10-10-10-7-7------------------12-12--------------------------|
D|-9-9-9-10-10-10-10-10-7-7-9-9-7-7----------12-12-12-12--------------------|
A|-7-7-7-8--8--8--8--8--5-5-9-9-7-7--10-10-x-10-10-12-12--------------------|
E|--------------------------7-7-5-5--8--8--x-------10-10--------------------|

e|----------------------------------------|
B|----------------------------------------|
G|-xx77xx77xx77xx77xx77xx77-66666-7-9-7---| Play 2 Times
D|-xx55xx55xx55xx55xx55xx55-44444-5-7-5---|
A|----------------------------------------|
E|----------------------------------------|

Chorus
   She brings...
e|--------------------------------------------------------------------------|
B|--------------------------------------------------------------------------|
G|-9-9-9-9---------------------5-5-5-5---------------------5-5-5-5-4-4-4----|
D|-9-9-9-9-----9-9-9-9-9-9-----5-5-5-5-----5-5-5-5-5-5-----5-5-5-5-4-4-4----|
A|-7-7-7-7-(0)-9-9-9-9-9-9-(0)-3-3-3-3-(0)-5-5-5-5-5-5-(0)-3-3-3-3-2-2-2----|
E|-------------7-7-7-7-7-7-----------------3-3-3-3-3-3----------------------|

e|--------------------------------------------------------------------------|
B|--------------------------------------------------------------------------|
G|-9-9-9-10-10-10-10-10-7-7------------------12-12--------------------------|
D|-9-9-9-10-10-10-10-10-7-7-9-9-7-7----------12-12-12-12--------------------|
A|-7-7-7-8--8--8--8--8--5-5-9-9-7-7--10-10-x-10-10-12-12--------------------|
E|--------------------------7-7-5-5--8--8--x-------10-10--------------------|

   She's a rebel...
e|--------------------------------------------------------------------------|
B|--------------------------------------------------------------------------|
G|----------------------7-7-5-5-------------------------7-7-5-5-------------|
D|-5-5----5-5----5-5----7-7-5-5----5-5----5-5----5-5----7-7-5-5-------------|
A|-5-5----5-5----5-5----5-5-3-3----5-5----5-5----5-5----5-5-3-3-------------|
E|-3-3----3-3----3-3---------------3-3----3-3----3-3------------------------|

Outro 1
e|---------------------------------------------------|
B|---------------------------------------------------|
G|-------5-5---------5-5---------5-5-7-7---5-5-------| Play 2 Times
D|-5-5---5-5---5-5---5-5---5-5---5-5-7-7---5-5-------|
A|-5-5(0)3-3(0)5-5(0)3-3(0)5-5(0)3-3-5-5(0)3-3-------|
E|-3-3---------3-3---------3-3-----------------------|
Outro 2
e|----------------------------------------|
B|----------------------------------------|
G|-xx77xx77xx77xx77xx77xx77-66666-7-9-7---| Play 2 Times
D|-xx55xx55xx55xx55xx55xx55-44444-5-7-5---|
A|----------------------------------------|
E|----------------------------------------|
Outro 3
e-----------------------------------------|
B-----------------------------------------|
G-----------------------------------------|
D-5-5-------------------------------------|
A-5-5-------------------------------------|
E-3-3-------------------------------------|
************************************

| /   slide up
| \   slide down
| h   hammer-on
| p   pull-off
| ~   vibrato
| +   harmonic
| x   Mute note
| b   Bend
| pb  Pre-bend
| br  Bend release
| pbr Pre-bend release
| brb Bend release bend

************************************
Suggest correction
comments
print report bad tab
guest
You may want to rate the tab now too:
select rating
Wanna post a correction for this tab? Suggest correction