Oops, an error
Loading. Please wait.

Shoplifter Tab

version 2
version 2

Whole song

926 views 3 this week
no commentswrite comment
1 2 3 4 5
x 4
add to favorites
launch autoscroll
font size
0
reset
how to read this tab
guitar tuner
Autoscroll
slow
fast
+/-
esc
set tempo
stop
Help us to improve Ultimate-Guitar.com Take our survey!
×
Author
Difficulty
-------------------------------------------------------------------------------
     Shoplifter - Green Day
-------------------------------------------------------------------------------
Tabbed by: Davis
Email: powerchord117@hotmail.com

Tuning: EADGBE


INTRO
(Light Distortion)

   E5                A5       E5                         B5
e|-------------------------------------------------------------------------|
B|-------------------------------------------------------------------------|
G|-------------------2-22-2-2----------------------------4-44-4-4-4-44-4-4-|
D|-2-22-2-2-2-22-2-2-2-22-2-2-2-22-2-2-2-22-2-2-2-22-2-2-4-44-4-4-4-44-4-4-|
A|-2-22-2-2-2-22-2-2-0-00-0-0-2-22-2-2-2-22-2-2-2-22-2-2-2-22-2-2-2-22-2-2-|
E|-0-00-0-0-0-00-0-0----------0-00-0-0-0-00-0-0-0-00-0-0-------------------|
  {=PM=}   {=PM=}   {=PM=}   {=PM=}   {=PM=}   {=PM=}   {=PM=}   {=PM=}



VERSE
(Light Distortion)

   E5                A5       E5                         B5
e|-------------------------------------------------------------------------|
B|-------------------------------------------------------------------------|
G|-------------------2-22-2-2----------------------------4-44-4-4-4-44-4-4-|
D|-2-22-2-2-2-22-2-2-2-22-2-2-2-22-2-2-2-22-2-2-2-22-2-2-4-44-4-4-4-44-4-4-|
A|-2-22-2-2-2-22-2-2-0-00-0-0-2-22-2-2-2-22-2-2-2-22-2-2-2-22-2-2-2-22-2-2-|
E|-0-00-0-0-0-00-0-0----------0-00-0-0-0-00-0-0-0-00-0-0-------------------|
  {=PM=}   {=PM=}   {=PM=}   {=PM=}   {=PM=}   {=PM=}   {=PM=}   {=PM=}

    
   E5                A5       E5                B5       E5
e|-------------------------------------------------------------------------|
B|-------------------------------------------------------------------------|
G|-------------------2-22-2-2-------------------4-44-4-4-------------------|
D|-2-22-2-2-2-22-2-2-2-22-2-2-2-22-2-2-2-22-2-2-4-44-4-4-2-22-2-2-2-22-2-2-|
A|-2-22-2-2-2-22-2-2-0-00-0-0-2-22-2-2-2-22-2-2-2-22-2-2-2-22-2-2-2-22-2-2-|
E|-0-00-0-0-0-00-0-0----------0-00-0-0-0-00-0-0----------0-00-0-0-0-00-0-0-|
  {=PM=}   {=PM=}   {=PM=}   {=PM=}   {=PM=}   {=PM=}   {=PM=}   {=PM=}

 


CHORUS
(Medium Distortion)

   C#m                         E
e|---------------------------------------------------------|
B|-5-5555-5-5555-5-5555-5-5555-----------------------------|
G|-6-6666-6-6666-6-6666-6-6666-1-1111-1-1111-1-1111-1-1111-|
D|-6-6666-6-6666-6-6666-6-6666-2-2222-2-2222-2-2222-2-2222-|
A|-4-4444-4-4444-4-4444-4-4444-2-2222-2-2222-2-2222-2-2222-|
E|-----------------------------0-0000-0-0000-0-0000-0-0000-|


   C#m                         A             B5
e|---------------------------------------------------------|
B|-5-5555-5-5555-5-5555-5-5555-2-2222-2-2222---------------|
G|-6-6666-6-6666-6-6666-6-6666-2-2222-2-2222-4-4-XX-4-4-X--|
D|-6-6666-6-6666-6-6666-6-6666-2-2222-2-2222-4-4-XX-4-4-X--|
A|-4-4444-4-4444-4-4444-4-4444-0-0000-0-0000-2-2-XX-2-2-X--|
E|---------------------------------------------------------|

SOLO
(Lead Guitar: Medium Distortion)

Rhythm part for verse is played behind solo licks


e|-0----------------------0-0--------0------------------------|
B|---0---0-------2p0------2p0------0---0---0----------4-------|
G|-----1---------------------------------1----------4-----4---|
D|----------------------------------------------------------4-|
A|------------------------------------------------------------|
E|------------------------------------------------------------|

e|-0-------------0-0------0-0-----------------0--------4/12---|
B|---0---0----2--2p0------2p0--------4------------------------|
G|-----1----X----------------------4--------------------------|
D|----------------------------------------------2-------------|
A|------------------------------------------------------------|
E|------------------------------------------------------------|

This is played by the lead guitar over the last 2 lines in the last verse:

e|---0--------------------0--|
B|-0---0-------4--------0----|
G|-------1---4---4----1------|
D|-----------------4---------|
A|---------------------------|
E|---------------------------| x2

..now you gotta do some time..etc.

ORDER:
Intro
Verse
Verse
Chorus
Verse
Solo
Chorus
Verse



| /  slide up
| \  slide down
| h  hammer-on
| p  pull-off
| ~  vibrato
| +  harmonic
| x  Mute note
===============================================================================
Suggest correction
comments
print report bad tab
guest
You may want to rate the tab now too:
select rating
Wanna post a correction for this tab? Suggest correction