Oops, an error
Loading. Please wait.

Sick Of Me Tab

version 2
version 2

Whole song

Interactive

115 views 1 this week
no commentswrite comment
1 2 3 4 5
3 more votes to show rating
add to favorites
launch autoscroll
font size
0
reset
how to read this tab
guitar tuner
Autoscroll
slow
fast
+/-
esc
set tempo
stop
Help us to improve Ultimate-Guitar.com Take our survey!
×
Author
Difficulty
novice
Green Day
Sick of Me
From Shenanigans (2002)
Standard Tuning

Verse
e------------------------------------------------------------------|
B------------------------------------------------------------------|
G---------------------------------5--5-----------------------------|    X4
D----5--5--5-5-5-5--5-5-5--5-5-5--5--5--3-3-3--5--5-5-5--5-5-5-----|
A----5--5--5-5-5-5--5-5-5--5-5-5--3--3--3-3-3--5--5-5-5--5-5-5-----|
E----3--3--3-3-3-3--3-3-3--3-3-3--------1-1-1--3--3-3-3--3-3-3-----|

Chorus 1
e------------------------------------------------------------------|
B------------------------------------------------------------------|
G----5--5--5-5-5-------------------5-5------------7-7--------------|    x1
D----5--5--5-5-5--5--5-5-5--5-5-5--5-5--5--5-5-5--7-7--5--5-5-5----|
A----3--3--3-3-3--5--5-5-5--5-5-5--3-3--5--5-5-5--5-5--5--5-5-5----|
E-----------------3--3-3-3--3-3-3-------3--3-3-3-------3--3-3-3----|

e--------------------------------------------------------|
B--------------------------------------------------------|
G----5--5--5-5-5-------------------5-5------------10-10--|
D----5--5--5-5-5--5--5-5-5--5-5-5--5-5--5--5-5-5--10-10--|
A----3--3--3-3-3--5--5-5-5--5-5-5--3-3--5--5-5-5--8--8---|
E-----------------3--3-3-3--3-3-3-------3--3-3-3---------|

e------------------------|
B------------------------|
G----7--7-7-7-7-7-7-7----|    x1
D----7--7-7-7-7-7-7-7----|
A----5--5-5-5-5-5-5-5----|
E------------------------|

Chorus 2/3
e------------------------------------------------------------------|
B------------------------------------------------------------------|
G----5--5--5-5-5-------------------5-5------------7-7--------------|    x1
D----5--5--5-5-5--5--5-5-5--5-5-5--5-5--5--5-5-5--7-7--5--5-5-5----|
A----3--3--3-3-3--5--5-5-5--5-5-5--3-3--5--5-5-5--5-5--5--5-5-5----|
E-----------------3--3-3-3--3-3-3-------3--3-3-3-------3--3-3-3----|

e--------------------------------------------------------|
B--------------------------------------------------------|
G----5--5--5-5-5-------------------5-5------------10-10--|
D----5--5--5-5-5--5--5-5-5--5-5-5--5-5--5--5-5-5--10-10--|
A----3--3--3-3-3--5--5-5-5--5-5-5--3-3--5--5-5-5--8--8---|
E-----------------3--3-3-3--3-3-3-------3--3-3-3---------|

e-----------------------------|
B-----------------------------|
G----7--7-7-7-7-7-7-7-7-7-7---|    x1
D----7--7-7-7-7-7-7-7-7-7-7---|
A----5--5-5-5-5-5-5-5-5-5-5---|
E-----------------------------|

Bridge 1
e----------------------------------------|
B----------------------------------------|
G----10--7--7-7-7-7-7-7-7-7-7-7-7--------|   x4
D----10--7--7-7-7-7-7-7-7-7-7-7-7--------|
A----8---5--5-5-5-5-5-5-5-5-5-5-5--------|
E----------------------------------------|

Bridge 2
e-------------|
B-------------|
G----x-x-5----|  x1
D----x-x-5----|
A----x-x-3----|
E-------------|

Order:
Verse
Chorus 1
Verse
Chorus 2
Bridge 1
Bridge 2
Verse
Chorus 3
Bridge 1

End on:
e-----|
B-----|
G--7--|
D--7--|
A--5--|
E-----|
Suggest correction
Give kudos to tab author, rate the tab!
1 2 3 4 5
comments
print report bad tab
guest
You may want to rate the tab now too:
select rating
Wanna post a correction for this tab? Suggest correction